версия для незрячих

Из кинофильмов - We are Number One

Песня Из кинофильмов "We are Number One" с аккордами и аппликатурами для гитары и укулеле.

Выбрать тональность (транспонирование): CmC♯mDmD♯mEmFmF♯mGmG♯mAmBmHm
Внимание! После клика на play песня заиграет через 2-3 минуты! Пожалуйста дождитесь!
При клике на аккорд он зазвучит! Настройки звукоизвлечения и темпа - ниже в караоке-плеере.
е|--8-7-8-7-8-4----4-8-9-9-11-8-9-8-9-8-
b|-6-----------6--6-----9---------------
g|--------------------------------------
d|--------------------------------------
а|--------------------------------------
е|--------------------------------------
                                       Hey!
  Fm/G                 C#     C  
е|--8-7-8-7-8-4----4-8-9-9-11-8-9-8-9-8-
b|-6-----------6--6-----9---------------
g|--------------------------------------
d|--------------------------------------
а|--------------------------------------
е|--------------------------------------
                             We are Number One Hey!
  Fm/G                 C#     C  
е|--8-7-8-7-8-4----4-8-9-9-11-8-9-8-9-8-
b|-6-----------6--6-----9---------------
g|--------------------------------------
d|--------------------------------------
а|--------------------------------------
е|--------------------------------------
                             We are Number One 
Fm/G
   Now listen closely
Fm/G 
Here's а little lesson in trickery
  C#                   C
This is going down in history
Fm/G
If you wanna be а Villain Number One
    C#                        C
You have to chase а superhero on the run
      A#m                   Cm
Just follow my moves, and sneak around
    C#                    D#
Be careful not to make а sound
Shh
СRUNCH
                     6:IV 6:III 6:II
No, don't touch that!
   Fm/G                C#     C  
е|--8-7-8-7-8-4----4-8-9-9-11-8-9-8-9-8-
b|-6-----------6--6-----9---------------
g|--------------------------------------
d|--------------------------------------
а|--------------------------------------
е|--------------------------------------
                             We are Number One Hey!
   Fm/G                C#     C   
е|--8-7-8-7-8-4----4-8-9-9-11-8-9-8-9-8-
b|-6-----------6--6-----9---------------
g|--------------------------------------       A
d|--------------------------------------
а|--------------------------------------
е|--------------------------------------   
                             We are Number One 
   Fm/G                C#     C  
е|--8-7-8-7-8-4----4-8-9-9-11-8-9-8-9-8-
b|-6-----------6--6-----9---------------
g|--------------------------------------      Fm/G
d|--------------------------------------
а|--------------------------------------
е|--------------------------------------
                             We are Number One

    Fm/G
Now look at this net, that I just found
     C#            C
When I say go, be ready to throw
Go!
Throw it at him, not me!
Ugh, let's try something else

     Fm/G
Now watch and learn, here's the deal
        C#                      C
He'll slip and slide on this banana peel
                              6:IV 6:III 6:II
Ha ha ha, WHAT АRE YOU DOING!?
   Fm/G                C#     C
е|--8-7-8-7-8-4----4-8-9-9-11-8-9-8-9-8-
b|-6-----------6--6-----9---------------
g|--------------------------------------
d|--------------------------------------
а|--------------------------------------
е|--------------------------------------
                                       Hey!
   Fm/G                C#     
е|--8-7-8-7-8-4----4-8-9-9-11-
b|-6-----------6--6-----9-----
g|----------------------------
d|----------------------------
а|----------------------------
е|----------------------------
   Fm/G                C#     C  
е|--8-7-8-7-8-4----4-8-9-9-11-8-9-8-9-8-
b|-6-----------6--6-----9---------------
g|--------------------------------------
d|--------------------------------------
а|--------------------------------------
е|--------------------------------------
                             We are Number One Hey!
   Fm/G                C#     
е|--8-7-8-7-8-4----4-8-9-9-11-
b|-6-----------6--6-----9-----
g|----------------------------
d|----------------------------
а|----------------------------
е|----------------------------

   F#m/G#               D        C#
е|--9-8-9-8-9-5----5-9-10--10-12-9-10-9-10-9-
b|-7-----------7--7------10------------------
g|-------------------------------------------
d|-------------------------------------------
а|-------------------------------------------
е|-------------------------------------------
                                            Hey!
   F#m/G#               D        C#
е|--9-8-9-8-9-5----5-9-10--10-12-9-10-9-10-9-
b|-7-----------7--7------10------------------
g|-------------------------------------------
d|-------------------------------------------
а|-------------------------------------------
е|-------------------------------------------
                                            Hey!
   F#m/G#               D        C#
е|--9-8-9-8-9-5----5-9-10--10-12-9-10-9-10-9-
b|-7-----------7--7------10------------------
g|-------------------------------------------
d|-------------------------------------------
а|-------------------------------------------
е|-------------------------------------------
                                We are Number One Hey!
   F#m/G#               D        C#
е|--9-8-9-8-9-5----5-9-10--10-12-9-10-9-10-9-
b|-7-----------7--7------10------------------
g|-------------------------------------------
d|-------------------------------------------
а|-------------------------------------------
е|-------------------------------------------
                                We are Number One Hey!
   C#
е|-9-10---9-10--9----9-10---9-10--9-
b|----------------------------------
g|----------------------------------
d|----------------------------------
а|----------------------------------
е|----------------------------------
  We are Number One We are Number One We are Number One
 C#
Hey!
F#m
Hey!
Качество подбора: нормальное, просмотров за неделю: 2, оригинальная тональность: fm.
Поделись аккордами скорей и они к тебе не раз ещё вернутся!
Заметили ошибку? Нажмите сюда
Гитарное караоке
Темп: , звукоизвлечение:,
Это проигрыватель аккордов. Пойте под гитару.. без гитары!
Специальные клавиши:
NUM4 - проиграть предыдущий аккорд, NUM5 - текущий, NUM6 - следующий.
Перейти в полную версию гитарного караоке-плеера

Панель подсказки аккордов

Режим: изучения | исполнения

подсказывать порядок аккордов в тексте

Порядок аккордов по строкам:


Fm/G | C# | Cскрыть

Fm/G | C# | Cскрыть

Fm/Gскрыть
Fm/Gскрыть
C# | Cскрыть
Fm/Gскрыть
C# | Cскрыть
A#m | Cmскрыть
C# | D#скрыть

Fm/G | C# | Cскрыть

Fm/G | C# | Cскрыть

Aскрыть

Fm/G | C# | Cскрыть

Fm/Gскрыть

Fm/Gскрыть
C# | Cскрыть

Fm/Gскрыть
C# | Cскрыть

Fm/G | C# | Cскрыть

Fm/G | C#скрыть

Fm/G | C# | Cскрыть

Fm/G | C#скрыть

F#m/G# | D | C#скрыть

F#m/G# | D | C#скрыть

F#m/G# | D | C#скрыть

F#m/G# | D | C#скрыть

C#скрыть

C#скрыть
F#mскрыть

Другие песни Из кинофильмов

Популярные и любимые песни из кинофильмов, телефильмов и сериалов

Любите и хорошо знаете песни этого исполнителя? Сыграйте в игру угадай песню Из кинофильмов.