версия для незрячих

Из кинофильмов - The Rains Of Castamere

Песня Из кинофильмов "The Rains Of Castamere" с аккордами и аппликатурами для гитары и укулеле.

Выбрать тональность (транспонирование): CC♯DD♯EFF♯GG♯ABH
Внимание! После клика на play песня заиграет через 2-3 минуты! Пожалуйста дождитесь!
При клике на аккорд он зазвучит! Настройки звукоизвлечения и темпа - ниже в караоке-плеере.
е|-------------------------------------------------------|
B|-------------------------------------------------------|
G|-------------------0-----------0-----------------------|
D|---3-----2-----3-------2-----------3---2---0---2-------|
А|-0-----0-----0-------------0---------------------------|
Е|-------------------------------------------------------|

е|-----------------------------------------------------|
B|-----------------------------------------------------|
G|---2---3-0-----2---3-0---2---3---2---0---------------|
D|-0---------------------------------------3---2-------|
А|-------------3---------------------------------------|
Е|-----------------------------------------------------|

е|-------------------------------------------------------|
B|-------------------------------------------------------|
G|-------------------0-----------0-----------------------|
D|---3-----2-----3-------2-----------3---2---0-----------|
А|-0-----0-----0-------------0-------------------3-------|
Е|-------------------------------------------------------|

е|-----------------------------------------------------|
B|-----------------------------------------------------|
G|---2---3-0-----2---3-0---2---3---2---0---------------|
D|-----------------------------------------3---0-------|
А|-3-----------3---------------------------------------|
Е|-----------------------------------------------------|

е|-------------------------------------------------------|
B|-------------------------------------------------------|
G|-------------------------------------------------------|
D|-----2-3-0---3---3-2-------------2-3-0---3---3-2-------|
А|-0-------------------3-------0-------------------------|
Е|-------------------------------------------------------|

е|---------------------------------------------------------|
B|---------------------------------------------------------|
G|-------------2---2---0-----------------------------------|
D|-----2-3-0---------------0---3---3-------0-2---3-0-------|
А|-0-------------------------------------------------------|
Е|---------------------------------------------------------|

е|-----------------------------------------------------------|
B|-----------------------------------------------------------|
G|-------------2---2---0-------------------2-2-0-------------|
D|-----2-3-0---------------0---3---3-------------2-3-0-------|
А|-0---------------------------------------------------------|
Е|-----------------------------------------------------------|

е|-------------------------------------------------------|
B|-------------------------------------------------------|
G|-------------------0-----------0-----------------------|
D|---3-----2-----3-------2-----------3---2---0---2-------|
А|-0-----0-----0-------------0---------------------------|
Е|-------------------------------------------------------|

е|-----------------------------------------------------|
B|-----------------------------------------------------|
G|---2---3-0-----2---3-0---2---3---2---0---------------|
D|-0---------------------------------------3---2-------|
А|-------------3---------------------------------------|
Е|-----------------------------------------------------|

е|-----------------------------------------------------------|
B|-----------------------------------------------------------|
G|---2-----0-----2---3---0-------2---3---2---0---------------|
D|-----------------------------------------------3---0-------|
А|-3-----3-----3---------------------------------------------|
Е|-----------------------------------------------------------|

е|-------------------------------------------------|
B|-------------------------------------------------|
G|-------------------------------------------------|
D|-----2-3-0---3---3-2---------3-3-0---3---3-2-----|
А|-0-------------------3---0-------------------3---|
Е|-------------------------------------------------|

е|-----------------------------------------------------|
B|-----------------------------------------------------|
G|-------------2---2---0-------------------------------|
D|-----2-3-0---------------0---3---3---0-2---3-0-------|
А|-0---------------------------------------------------|
Е|-----------------------------------------------------|

е|-------------------------------------------------------|
B|-------------------------------------------------------|
G|-------------2---2---0---------------2-2-0-------------|
D|-----2-3-0---------------0---3---3---------2-3-0-------|
А|-0-----------------------------------------------------|
Е|-------------------------------------------------------|
Качество подбора: нормальное, просмотров за неделю: 4, оригинальная тональность: .
Поделись аккордами скорей и они к тебе не раз ещё вернутся!
Заметили ошибку? Нажмите сюда
Гитарное караоке
Темп: , звукоизвлечение:,
Это проигрыватель аккордов. Пойте под гитару.. без гитары!
Специальные клавиши:
NUM4 - проиграть предыдущий аккорд, NUM5 - текущий, NUM6 - следующий.
Перейти в полную версию гитарного караоке-плеера

Панель подсказки аккордов

Режим: изучения | исполнения

подсказывать порядок аккордов в тексте

Порядок аккордов по строкам:


Другие песни Из кинофильмов

Популярные и любимые песни из кинофильмов, телефильмов и сериалов

Любите и хорошо знаете песни этого исполнителя? Сыграйте в игру угадай песню Из кинофильмов.