версия для незрячих

Из кинофильмов - Max Payne

Песня Из кинофильмов "Max Payne" с аккордами и аппликатурами для гитары и укулеле.

Выбрать тональность (транспонирование): CC♯DD♯EFF♯GG♯ABH
Внимание! После клика на play песня заиграет через 2-3 минуты! Пожалуйста дождитесь!
При клике на аккорд он зазвучит! Настройки звукоизвлечения и темпа - ниже в караоке-плеере.
Е|-----------------3--8--3--6--3-----------
B|-----------4--6-----------3--3--4--------
G|--4/-5--5-----------------------5--3/4---
D|-----------------------------------------
А|--2/-3--------------3-----------3--1/2---
Е|-----------------------------------------

Е|---------------------------
B|-------3-----3--4----------
G|--1р0--0--0--0--0--4--4h5--
D|---------------------------
А|-------2--------6--3-------
Е|-------3-------------------

Е|-----------------------------------------------------------------------------------------
B|--1-----------3--0-----4--1-----------3--0-----------1-----------3--0-----------4--3-----
G|--1-----0--1-----0--0--0--1-----0--1-----0--0--------1-----0--1-----0--0--------0--0-----
D|--3--3--------------------3--3-----------------0--1--3--3-----------------0--------------
А|--3--------------2--------3--------------------------3-----------------------2-----------
Е|--1--------------3--------1--------------3-----------1--------------3--------------------

Е|--1--------------------------
B|--1-----------3--1--0-----0--
G|--1-----0--1-----0--0--2--0--
D|--3--3-----------------------
А|--3--------------------------
Е|--1--------------3-----------

Е|-----4р3-------------4р3-------------4р3---------------------4р3----------
B|-------------3h4-------------3h4----------4--3h4-----3h4-------------4р3--
G|--5-------5-------5-------5-------4---------------5-------4-------5-------
D|--------------------------------------------------------------------------
А|--3---------------3---------------2-----------------------2---------------
Е|--------------------------------------------------------------------------
Качество подбора: нормальное, просмотров за неделю: 0, оригинальная тональность: .
Поделись аккордами скорей и они к тебе не раз ещё вернутся!
Заметили ошибку? Нажмите сюда
Гитарное караоке
Темп: , звукоизвлечение:,
Это проигрыватель аккордов. Пойте под гитару.. без гитары!
Специальные клавиши:
NUM4 - проиграть предыдущий аккорд, NUM5 - текущий, NUM6 - следующий.
Перейти в полную версию гитарного караоке-плеера

Панель подсказки аккордов

Режим: изучения | исполнения

подсказывать порядок аккордов в тексте

Порядок аккордов по строкам:


Другие песни Из кинофильмов

Популярные и любимые песни из кинофильмов, телефильмов и сериалов

Любите и хорошо знаете песни этого исполнителя? Сыграйте в игру угадай песню Из кинофильмов.