версия для незрячих

Из кинофильмов - Naruto Shippuden

Песня Из кинофильмов "Naruto Shippuden" с аккордами и аппликатурами для гитары и укулеле.

Выбрать тональность (транспонирование): CC♯DD♯EFF♯GG♯ABH
Внимание! После клика на play песня заиграет через 2-3 минуты! Пожалуйста дождитесь!
При клике на аккорд он зазвучит! Настройки звукоизвлечения и темпа - ниже в караоке-плеере.
Tuning: Drop D

Е|------------------------------------------------------------------|
B|------------------------------------------------------------------|
G|------------------------------------------------------------------|
D|-0-2/3р0--/5--/5---------------0-2/3р0--0---0---------------------|
А|-0-2/3р0--/5--/5---------------0-2/3р0--0---0---------------------|
D|-0-2/3р0--/5--/5---------------0-2/3р0--0---0---------------------|

Е|------------------------------------------------------------------|
B|------------------------------------------------------------------|
G|------------------------------------------------------------------|
D|-0-2/3р0--/5--/5---------------0-2/3р0--0---0---------------------|
А|-0-2/3р0--/5--/5---------------0-2/3р0--0---0---------------------|
D|-0-2/3р0--/5--/5---------------0-2/3р0--0---0---------------------|

Е|------5----------0h1---3-----------0h1--0-----------------------------|
B|--3---------3------------------1-------------3------------------------|
G|----------2------------------0------------------------2---------------|
D|--------0------------------0------------------------0-----------------|
А|-----------------------3--------------------------0-------------------|
D|------0--------------------------------------0------------------------|

Е|--------------------------------------------------------------------|
B|--------------------------------------------------------------------|
G|------------------2-------------------------------------------------|
D|-0-2/3р0--0---0-----------------------------------------------------|
А|-0-2/3р0--0---------------------------------------------------------|
D|-0-2/3р0--0---------------------------------------------------------|

Е|------5------------/8---7------------3-5------------------------------|
B|--3---------3----------------------------------3----------------------|
G|----------2--------------------7-------------2------------------------|
D|--------0--------------------5-------------0--------------------------|
А|---------------------------5------------------------------------------|
D|------0-----------------5--------------0------------------------------|

Е|--------------------------------------------------------------------|
B|--------------------------------------------------------------------|
G|------------------2-------------------------------------------------|
D|-0-2/3р0--0---0-----------------------------------------------------|
А|-0-2/3р0--0---------------------------------------------------------|
D|-0-2/3р0--0---------------------------------------------------------|

Е|------5----------0h1---3-----------0h1--0-----------------------------|
B|--3---------3------------------1-------------3------------------------|
G|----------2------------------0------------------------2---------------|
D|--------0------------------0------------------------0-----------------|
А|-----------------------3--------------------------0-------------------|
D|------0--------------------------------------0------------------------|

Е|--------------------------------------------------------------------|
B|--------------------------------------------------------------------|
G|------------------2-------------------------------------------------|
D|-0-2/3р0--0---0-----------------------------------------------------|
А|-0-2/3р0--0---------------------------------------------------------|
D|-0-2/3р0--0---------------------------------------------------------|

Е|------5------------/8---7------------3-5------------------------------|
B|--3---------3----------------------------------3----------------------|
G|----------2--------------------7-------------2------------------------|
D|--------0--------------------5-------------0--------------------------|
А|---------------------------5------------------------------------------|
D|------0-----------------5--------------0------------------------------|

Е|--------------------------------------------------------------------|
B|--------------------------------------------------------------------|
G|------------------2-------------------------------------------------|
D|-0-2/3р0--0---0-----------------------------------------------------|
А|-0-2/3р0--0---------------------------------------------------------|
D|-0-2/3р0--0---------------------------------------------------------|

Е|-0h1----------------0h1--0-------------0h1----------------------------|
B|------3-------3------------------2----------3-------------------------|
G|------------0------------------0--------------------2-----------------|
D|----------0------------------0--------------------0-------------------|
А|------0------------------0----------------------0---------------------|
D|--------------------------------------------0-------------------------|

Е|--------------------------------------------------------------------|
B|--------------------------------------------------------------------|
G|------------------2-------------------------------------------------|
D|-0-2/3р0--0---0-----------------------------------------------------|
А|-0-2/3р0--0---------------------------------------------------------|
D|-0-2/3р0--0---------------------------------------------------------|

Е|-0h1----------------0h1--0-------------0h1----------------------------|
B|------3-------3------------------2----------3-------------------------|
G|------------0------------------0--------------------2-----------------|
D|----------0------------------0--------------------0-------------------|
А|------0------------------0----------------------0---------------------|
D|--------------------------------------------0-------------------------|

Е|----------------------------------------------------------------------|
B|----------------------------------------------------------------------|
G|----------------------------------------------------------------------|
D|----------------------------------------------------------------------|
А|-0-2--0---------------------------------------------------------------|
D|-0-2--0---------------------------------------------------------------|

Е|------------------------------------------------------------------|
B|------------------------------------------------------------------|
G|------------------------------------------------------------------|
D|-0-2/3р0--/5--/5---------------0-2/3р0--0---0---------------------|
А|-0-2/3р0--/5--/5---------------0-2/3р0--0---0---------------------|
D|-0-2/3р0--/5--/5---------------0-2/3р0--0---0---------------------|
Качество подбора: нормальное, просмотров за неделю: 3, оригинальная тональность: d.
Поделись аккордами скорей и они к тебе не раз ещё вернутся!
Заметили ошибку? Нажмите сюда
Гитарное караоке
Темп: , звукоизвлечение:,
Это проигрыватель аккордов. Пойте под гитару.. без гитары!
Специальные клавиши:
NUM4 - проиграть предыдущий аккорд, NUM5 - текущий, NUM6 - следующий.
Перейти в полную версию гитарного караоке-плеера

Панель подсказки аккордов

Режим: изучения | исполнения

подсказывать порядок аккордов в тексте

Порядок аккордов по строкам:

Dскрыть

Другие песни Из кинофильмов

Популярные и любимые песни из кинофильмов, телефильмов и сериалов

Любите и хорошо знаете песни этого исполнителя? Сыграйте в игру угадай песню Из кинофильмов.