версия для незрячих

Из кинофильмов - The Immortals

Песня Из кинофильмов "The Immortals" с аккордами и аппликатурами для гитары и укулеле.

Выбрать тональность (транспонирование): CC♯DD♯EFF♯GG♯ABH
Внимание! После клика на play песня заиграет через 2-3 минуты! Пожалуйста дождитесь!
При клике на аккорд он зазвучит! Настройки звукоизвлечения и темпа - ниже в караоке-плеере.
Part 1: 
Е|--------------------0-----|--------0-----3-----0-----|--| 
B|--------1-----3--------3--|--1--1-----1-----1-----1--|--| 
G|--2--2-----2-----2--------|--------------------------|--| 
D|--------------------------|--------------------------|--| 
А|--------------------------|--------------------------|--| 
Е|--------------------------|--------------------------|--| 
 
Е|--------------------------|--------------------------|--| 
B|--------0-----1-----3--1--|--------------1-----1--0--|--| 
G|--0--0-----0-----0--------|--------2-----------------|--| 
D|--------------------------|--3--3-----3-----3--------|--| 
А|--------------------------|--------------------------|--| 
Е|--------------------------|--------------------------|--|  х2 
 
Part 2:
Е|--------------------|--------------------------|--| 
B|--------------------|--------------------------|--| 
G|--2--2--2-2--0--5---|--2--2--2-2--0------------|--| 
D|--2--2--2-2--0--5---|--2--2--2-2--0---2--------|--| 
А|--------------------|-----------------2--------|--| 
Е|--------------------|--------------------------|--| 
 
Е|--------------------|--------------------------|--| 
B|--------------------|--------------------------|--| 
G|--2--2--2-2--0--5---|--2--2--2--2-2-2-2--------|--| 
D|--2--2--2-2--0--5---|--2--2--2--2-2-2-2--------|--| 
А|--------------------|--------------------------|--| 
Е|--------------------|--------------------------|--|   х2 
 
Part 3:
Е|----------------------------|----------------------------|--| 
B|----5-----------------------|----5-----------------------|--| 
G|--2---2-5-2-3-2-5-2-3-2-0---|--2---2-5-2-3-2-5-2-3-2-0---|--| 
D|----------------------------|----------------------------|--| 
А|----------------------------|----------------------------|--| 
Е|----------------------------|----------------------------|--| 
 
Е|----------------------------|----------------------------|--| 
B|----5-----------------------|----5-----------------------|--| 
G|--2---2-5-2-3-2-5-2-3-2-0---|--2---2-5-0-0-2-2-2---------|--| 
D|----------------------------|----------------------------|--| 
А|----------------------------|----------------------------|--| 
Е|----------------------------|----------------------------|--| х2
Качество подбора: нормальное, просмотров за неделю: 0, оригинальная тональность: .
Поделись аккордами скорей и они к тебе не раз ещё вернутся!
Заметили ошибку? Нажмите сюда
Гитарное караоке
Темп: , звукоизвлечение:,
Это проигрыватель аккордов. Пойте под гитару.. без гитары!
Специальные клавиши:
NUM4 - проиграть предыдущий аккорд, NUM5 - текущий, NUM6 - следующий.
Перейти в полную версию гитарного караоке-плеера

Панель подсказки аккордов

Режим: изучения | исполнения

подсказывать порядок аккордов в тексте

Порядок аккордов по строкам:


Другие песни Из кинофильмов

Популярные и любимые песни из кинофильмов, телефильмов и сериалов

Любите и хорошо знаете песни этого исполнителя? Сыграйте в игру угадай песню Из кинофильмов.