версия для незрячих

Амвиш - Вечер

Песня Амвиш "Вечер" с аккордами и аппликатурами для гитары и укулеле.

Выбрать тональность (транспонирование): CmC♯mDmD♯mEmFmF♯mGmG♯mAmBmHm
Внимание! После клика на play песня заиграет через 2-3 минуты! Пожалуйста дождитесь!
При клике на аккорд он зазвучит! Настройки звукоизвлечения и темпа - ниже в караоке-плеере.
            Риф1              4раза
1--|---------------------------|-----------------------|--------------------|
2--|---------------------------|-----------------------|--------------------|
3--|------2------------------- |-----2--------4-----5--|-------2------------|
4--|----2-------------3--------|---2---2--2/4---4/5----|-----2---------4--4-|
5--|--0-----0-2-3---3-------2--|-0---------------------|---0-----2-2/5----5-|
6--|--------------1-----1-3----|-----------------------|-3------------------|

1 Куплет:
*     Am    
Вечер, вечер
G
Я не знал тебя
Am    G
Ты меня
Am       G
Я хотел узнать 
C       Риф1
Ты гулять

      *                   
3--|-------------9------10----------|     
4--|----------9------------10-------|     
5--|------7----------8---------8----|     
6--|---0----------------------------|    

2 Куплет:
Вечер, вечер
Мы были вместе 
Были с тобой
Ты шептала мне тихо
Хватит пойдем

Припев: 
Am C G F  G
Но был тогда последний вечер
Был последний он
Но был тогда последний вечер
Был последний он

3 Куплет:
Вечер, вечер
Я ласкал твой плечи
И обнимал
Целовал тебя в губы и 
Повторял  не уходи   не уходи

4 Куплет: 
Am C G Em
Вечер постой останься
Милая уйдет с тобой 
Нет прошу не надо
Будь со мной


Качество подбора: нормальное, просмотров за неделю: 0, оригинальная тональность: em.
Поделись аккордами скорей и они к тебе не раз ещё вернутся!
Заметили ошибку? Нажмите сюда
Гитарное караоке
Темп: , звукоизвлечение:,
Это проигрыватель аккордов. Пойте под гитару.. без гитары!
Специальные клавиши:
NUM4 - проиграть предыдущий аккорд, NUM5 - текущий, NUM6 - следующий.
Перейти в полную версию гитарного караоке-плеера

Панель подсказки аккордов

Режим: изучения | исполнения

подсказывать порядок аккордов в тексте

Порядок аккордов по строкам:


Amскрыть
Gскрыть
Am | Gскрыть
Am | Gскрыть
Cскрыть

Am | C | G | F | Gскрыть

Am | C | G | Emскрыть

Другие песни Амвиш

Любите и хорошо знаете песни этого исполнителя? Сыграйте в игру угадай песню Амвиш.