версия для незрячих

Амвиш - На этой земле

Песня Амвиш "На этой земле" с аккордами и аппликатурами для гитары и укулеле.

Выбрать тональность (транспонирование): CmC♯mDmD♯mEmFmF♯mGmG♯mAmBmHm
Внимание! После клика на play песня заиграет через 2-3 минуты! Пожалуйста дождитесь!
При клике на аккорд он зазвучит! Настройки звукоизвлечения и темпа - ниже в караоке-плеере.
Вступление:
3--------5------4---------5------4---------4-------2---------4------2------|
4------7------5---------7------5---------5-------3---------5------3--------|
5----0------0---------0------0---------------------------------------------|
6--------------------------------------3-------1---------3------1----------| 2 раза

Am G играть куплеты кроме 4

       Am        Am  Am*         Am*   Am   Am*     G         G     G*        G     G     G
1----------------0-----0---------0-----0-----0----------------3-----3---------3-----3-----3------|
2----------------1-----0---------0-----1-----0----------------0-----3---------0-----0-----0------|
3----------------2-----2---------2-----2-----2----------------0-----0---------0-----0-----0------|
4----------------2-----2---------2-----2-----2----------------0-----0---------0-----0-----0------|
5------0---------0-----0---------0-----0-----0----------------2-----2---------3-----3-----3------|
6----------------0-----0---------0-----0-----0------3---------3-----3---------3-----3-----3------|
       Б         !                             Б           !                       

! – бить с задержкой не сразу по всем струнам, а по очереди.

1 куплет:
Am G
Эй!
ты не выдержишь этого сна
уходишь скорей 
закрой за собой дверь

2 куплет:
Ты! 
позабудешь этот день
уходя, послушай
что скажу я

Припев:
Am       C       G   *
уходя, послушай меня
уходя, послушай, что скажу я

	*
5--------------0—2--3--2--0--|
6----0--1--3-----------------|
	
3 куплет:
может там 
немного лучше вода
немного больше тепла
и конечно сырая земля

Припев:
и конечно сырая земля (2 раза)

4 куплет:
2---------------------0-------------------------0----|
3-----------5------------5------------4-----------4--|
4------7-------7----------------5--------5-----------|
5----0---0--------0---------0-----0--------0---------|

но ты послушай
как бежит ручей
вдохни
и задержи на чуток этот вздох
чувствуешь
как манит этот цветок
эх полежать бы
в траве еще часок

Припев:
полежать бы в траве еще часок (2 раза)

5 куплет:
прежде чем
уйти из этого сна
подумай еще раз
и скажи

Припев:
жизнь прекрасна на этой земле
жизнь прекрасна на этой земле
она прекрасна во всей красе
она прекрасна на земле
Качество подбора: нормальное, просмотров за неделю: 0, оригинальная тональность: am.
Поделись аккордами скорей и они к тебе не раз ещё вернутся!
Заметили ошибку? Нажмите сюда
Гитарное караоке
Темп: , звукоизвлечение:,
Это проигрыватель аккордов. Пойте под гитару.. без гитары!
Специальные клавиши:
NUM4 - проиграть предыдущий аккорд, NUM5 - текущий, NUM6 - следующий.
Перейти в полную версию гитарного караоке-плеера

Панель подсказки аккордов

Режим: изучения | исполнения

подсказывать порядок аккордов в тексте

Порядок аккордов по строкам:


Am | Gскрыть
Am | Am | Am | G | G | G | G | Gскрыть

Am | Gскрыть

Am | C | Gскрыть

Другие песни Амвиш

Любите и хорошо знаете песни этого исполнителя? Сыграйте в игру угадай песню Амвиш.