версия для незрячих

Кай Метов - На сердце грусть

Песня Кая Метова "На сердце грусть" с аккордами и аппликатурами для гитары и укулеле.

Выбрать тональность (транспонирование): CmC♯mDmD♯mEmFmF♯mGmG♯mAmBmHm
Внимание! После клика на play песня заиграет через 2-3 минуты! Пожалуйста дождитесь!
При клике на аккорд он зазвучит! Настройки звукоизвлечения и темпа - ниже в караоке-плеере.
Вступление:
Е|-------|--------------3--2----------|--0-------------------------|
B|-------|--------------------3--0----|--1-----------3--------1L---|
G|-------|----------------------------|--0-----------2--------2L---|
D|-------|----------------------------|--2-----------0--------2L---|
А|-------|----------------------------|--3--------------------0L---|
Е|-------|----------------------------|----------------------------|

--------------0-------------|
--1--------------1----------|
--2-----------------2-------|
--2--------------------2----|
--0--------0----------------|
----------------------------|

-----3-----2----------------------------------------|
----------------------------------------------------|
--------------------------------0--------0-----0----|
----------------------------------------------------|
----------------------------------------------------|
--0-----------------------------------------0-------|

-----5-----3----------------------------------------|
----------------------------------------------------|
--------------------------------0--------0-----0----|
----------------------------------------------------|
--3-----------------------------------------3-------|
----------------------------------------------------|

-----3-----2----------------------------------------|
----------------------------------------------------|
--------------------------------0--------0-----0----|
----------------------------------------------------|
----------------------------------------------------|
--0-----------------------------------------0-------|

-----2-----0----------------------------------------|
----------------------------------------------------|
--------------------------------0--------0-----0----|
----------------------------------------------------|
--3-----------------------------------------3-------|
----------------------------------------------------|

-----3-----2----------------------------------------|
----------------------------------------------------|
--------------------------------0--------0-----0----|
----------------------------------------------------|
----------------------------------------------------|
--0-----------------------------------------0-------|

-----5-----3----------------------------------------|
----------------------------------------------------|
--------------------------------0--------0-----0----|
----------------------------------------------------|
--3-----------------------------------------3-------|
----------------------------------------------------|

-----3-----2----------------------------------------|
----------------------------------------------------|
--------------------------------0--------0-----0----|
----------------------------------------------------|
----------------------------------------------------|
--0-----------------------------------------0-------|

-----2-----0----------------------------------------|--0----|--0----|--0----|
----------------------------------------------------|--0----|--1----|--0----|
--------------------------------0--------0-----0----|--0----|--0----|--0----|
----------------------------------------------------|-------|--2----|-------|
--3-----------------------------------------3-------|-------|--3----|-------|
----------------------------------------------------|--0----|-------|--0----| etc.

Em                               C Em C
Облетает листва с тополей, ну и пусть
Em                       C Em C
Оставляя в сердце твоём грусть
Am                                    H7     Em  C
Может правда, а может ложь, потеряешь и не найдёшь
Am                                     H7        
Без тебя грустно будет мне жить, без тебя.
Em                                C Em C
Ты не хочешь чтоб я уходил, это факт
Em                               C Em C
Но сказать не хватает сил что же так
Am                              H7        Em  C
Твои губы опять молчат, и теряется где-то взгляд
Am                                      H7        
Без тебя грустно будет мне жить, без тебя.

Em                                 C Em C
Всё что было у нас позабыть не трудись
Em                               C Em C
Постарайся себя не винить и не злись
Am                                    H7        Em    C
Может сказка, а может быль, превратится в дорожную пыль
Am                                     H7        
Без тебя грустно будет мне жить, без тебя.

Припев:
Em               C G H7 Em C G 
Ну и пусть, на сердце грусть
         H7      Em         C G     Am H7             
На душе тоска, я налью вина за твои глаза
Em       C G       H7  Em C G 
Ну и что, всё у нас прошло
         H7      Em         C G     Am H7            
На душе тоска, я налью вина за твои глаза.

Am                                    H7      Em C
Может правда, а может ложь, потеряешь и не найдёшь
Am                                   H7 Em
Без тебя грустно будет мне жить, без тебя.
Качество подбора: нормальное, просмотров за неделю: 14, оригинальная тональность: em.
Поделись аккордами скорей и они к тебе не раз ещё вернутся!
Заметили ошибку? Нажмите сюда
Гитарное караоке
Темп: , звукоизвлечение:,
Это проигрыватель аккордов. Пойте под гитару.. без гитары!
Специальные клавиши:
NUM4 - проиграть предыдущий аккорд, NUM5 - текущий, NUM6 - следующий.
Перейти в полную версию гитарного караоке-плеера

Панель подсказки аккордов

Режим: изучения | исполнения

подсказывать порядок аккордов в тексте

Порядок аккордов по строкам:


Em | C | Em | Cскрыть
Em | C | Em | Cскрыть
Am | H7 | Em | Cскрыть
Am | H7скрыть
Em | C | Em | Cскрыть
Em | C | Em | Cскрыть
Am | H7 | Em | Cскрыть
Am | H7скрыть

Em | C | Em | Cскрыть
Em | C | Em | Cскрыть
Am | H7 | Em | Cскрыть
Am | H7скрыть

Em | C | G | H7 | Em | C | Gскрыть
H7 | Em | C | G | Am | H7скрыть
Em | C | G | H7 | Em | C | Gскрыть
H7 | Em | C | G | Am | H7скрыть

Am | H7 | Em | Cскрыть
Am | H7 | Emскрыть

Другие песни Кая Метова

Любите и хорошо знаете песни этого исполнителя? Сыграйте в игру угадай песню Кая Метова.