версия для незрячих

Цой Виктор - Музыка волн

Песня Виктора Цой "Музыка волн" с аккордами и аппликатурами для гитары и укулеле.

Выбрать тональность (транспонирование): CmC♯mDmD♯mEmFmF♯mGmG♯mAmBmHm
Внимание! После клика на play песня заиграет через 2-3 минуты! Пожалуйста дождитесь!
При клике на аккорд он зазвучит! Настройки звукоизвлечения и темпа - ниже в караоке-плеере.
 Вступление. В скобках - форшлаг.
 E ||----------------------------|-------------------------|
 H ||----------------------------|-------------------------|
 G ||--------------0-------------|-----------2-------------|
 D ||-----------0----------0-----|--------2----------2-----|
 A ||--3--3-(0)---------3-----3--|--0--0----------0-----0--|
 E ||----------------------------|-------------------------|

-------------------------|--------------------|
-------------------------|--------------------|
-------------------------|-------------------*|
-----------3-------3-----|--0----------------*|
--------3-------3-----3--|--2-----------------|
--1--1-------------------|--3-----------------|

Куплет.
    C     C  C  C       Am    Am   Am   Am        F      F  F  F 
 E |--0--х--0--0--0--х--|-0--х--0--0--0--х--|--1---х--1--1--1--х-|
 H |--1--х--1--1--1--х--|-1--х--1--1--1--х--|--1---х--1--1--1--х-|
 G |*-0--х--0--0--0--х--|-2--х--2--2--2--х--|--2---х--2--2--2--х-|
 D |*-2--х--2--2--2--х--|-2--х--2--2--2--х--|--3---х--3--3--3--х-|
 A |--3--х--3--3--3--х--|-0--х--0--0--0--х--|--3---х--3--3--3--х-|
 E |--------------------|-------------------|--1---х--1--1--1--х-|

  F  F  F  F   F          C     C  C  C       Am    Am   Am  Am 
--1--1--1--1---1--1---||--0--х--0--0--0--х-|--0--х--0--0--0--х-|
--1--1--1--1---1--1---||--1--х--1--1--1--х-|--1--х--1--1--1--х-|
--2--2--2--2---2--2--*||--0--х--0--0--0--х-|--2--х--2--2--2--х-|
--3--3--3--3---3--3--*||--2--х--2--2--2--х-|--2--х--2--2--2--х-|
--3--3--3--3---3--3---||--3--х--3--3--3--х-|--0--х--0--0--0--х-|
--1--1--1--1---1--1---||-------------------|-------------------|

  F     F  F  F        G     G  G  G          C     C  C  C 
--1--х--1--1--1--х--|--3--х--3--3--3--х--||---0--х--0--0--0--х-|
--1--х--1--1--1--х--|--0--х--0--0--0--х--||---1--х--1--1--1--х-|
--2--х--2--2--2--х--|--0--х--0--0--0--х--||*--0--х--0--0--0--х-|
--3--х--3--3--3--х--|--0--х--0--0--0--х--||*--2--х--2--2--2--х-|
--3--х--3--3--3--х--|--2--х--2--2--2--х--||---3--х--3--3--3--х-|
--1--х--1--1--1--х--|--3--х--3--3--3--х--||--------------------|

  F     F  F  F       Am   Am   Am  Am       F  F  F  F    F 
--3--х--3--3--3--х-|--0-х--0--0--0--х--|--1--1--1--1----1--1--||
--0--х--0--0--0--х-|--1-х--1--1--1--х--|--1--1--1--1----1--1--||
--0--х--0--0--0--х-|--2-х--2--2--2--х--|--2--2--2--2----2--2-*||
--0--х--0--0--0--х-|--2-х--2--2--2--х--|--3--3--3--3----3--3-*||
--2--х--2--2--2--х-|--0-х--0--0--0--х--|--3--3--3--3----3--3--||
--3--х--3--3--3--х-|-------------------|--1--1--1--1----1--1--||

БАСС.
 G ||-------------------|-------------------|--------------------|
 D ||-------------------|-------------------|--------------------|
 A ||--3----------------|--0----------------|--------------------|
 E ||-------------------|-------------------|--1-----------------|

--------------------||----------------------|------------------|
-------------------*||*---------------------|------------------|
-------------------*||*--3------3--3--------|--0------0--0-----|
--3-----------------||----------------------|------------------|

---------------------|-----------------------||----------------|
---------------------|----------------------*||----------------|
---------------------|----------------------*||--3------3--3---|
--1------1--1--------|--1------1--1/-3-------||----------------|

---------------------|---------------------|-------------------|
---------------------|---------------------|-------------------|
--0------0--0--------|---------------------|-------------------|
---------------------|--1------1--1--------|--3------3--3------|

|----------------------|---------------------|-----------------|
|*---------------------|---------------------|-----------------|
|*--3------3--3--------|---------------------|--0------0--0----|
|----------------------|--3------3--3--------|-----------------|

----------------------||
---------------------*||
---------------------*||
--1------1--1---------||

 C                    Am          F 
Я вижу, как волны смывают следы на песке,
 C                  Am                F 
Я слышу, как ветер поет свою странную песню,
 C                  Am                F  G  
Я слышу, как струны деревьев играют ее,
 C      G            Am   F 
Музыку волн, музыку ветра.  (2 раза) / C     Am  F /

Здесь трудно сказать, что такое асфальт.
Здесь трудно сказать, что такое машина.
Здесь нужно руками кидать воду вверх.
Музыка волн, музыка ветра.

Кто из вас вспомнит о тех, кто сбился с дороги?
Кто из вас вспомнит о тех, кто смеялся и пел?
Кто из вас вспомнит, чувствуя холод приклада,
Музыку волн, музыку ветра?
Качество подбора: нормальное, просмотров за неделю: 91, оригинальная тональность: am.
Поделись аккордами скорей и они к тебе не раз ещё вернутся!
Заметили ошибку? Нажмите сюда
Гитарное караоке
Темп: , звукоизвлечение:,
Это проигрыватель аккордов. Пойте под гитару.. без гитары!
Специальные клавиши:
NUM4 - проиграть предыдущий аккорд, NUM5 - текущий, NUM6 - следующий.
Перейти в полную версию гитарного караоке-плеера

Панель подсказки аккордов

Режим: изучения | исполнения

подсказывать порядок аккордов в тексте

Порядок аккордов по строкам:

Eскрыть
Hскрыть
Gскрыть
Dскрыть
Aскрыть
Eскрыть

C | C | C | C | Am | Am | Am | Am | F | F | F | Fскрыть
Eскрыть
Hскрыть
Gскрыть
Dскрыть
Aскрыть
Eскрыть
F | F | F | F | F | C | C | C | C | Am | Am | Am | Amскрыть

F | F | F | F | G | G | G | G | C | C | C | Cскрыть

F | F | F | F | Am | Am | Am | Am | F | F | F | F | Fскрыть

Gскрыть
Dскрыть
Aскрыть
Eскрыть

C | Am | Fскрыть
C | Am | Fскрыть
C | Am | F | Gскрыть
C | G | Am | Fскрыть
C | Am | Fскрыть

Другие песни Виктора Цой

Любите и хорошо знаете песни этого исполнителя? Сыграйте в игру угадай песню Виктора Цой.