АккордусПесенник с аккордамиАрияНе хочешь - не верь мне
версия для незрячих

Ария - Не хочешь - не верь мне

Песня Арии "Не хочешь - не верь мне" с аккордами и аппликатурами для гитары и укулеле.

Выбрать тональность (транспонирование): CmC♯mDmD♯mEmFmF♯mGmG♯mAmBmHm
Внимание! После клика на play песня заиграет через 2-3 минуты! Пожалуйста дождитесь!
При клике на аккорд он зазвучит! Настройки звукоизвлечения и темпа - ниже в караоке-плеере.
Е|------------------------------| 2 раза,
B|------------------------------| затем 2 раза на бэк-фоне
G|------------------------------|
D|--------5----0-3---0-2---0-1--|
А|------5----3-----2-----1------|
Е|---3--------------------------|

Е|-------------------------------------------------------|
B|-------------------------------------------------------| 2
G|--5--5-3-4~--4-2-3~--3-1-2~----------------------------| раза
D|----------------------------6-4-5~--5-3-4~--4-2-3-2-0--|
А|-------------------------------------------------------|
Е|-------------------------------------------------------|

Е|------------------------------------|
B|------------------------------------|
G|-------------------------------7~~--|
D|---9--7--12--10---------------------|
А|---7--5--10--8---7-8-7Н0-5~~--------|
Е|------------------------------------|

Е|-------------------------------|
B|-------------------------------|
G|-------------------------------|
D|---9--7--12--10----------------|
А|---7--5--10--8---7-8-7Н0-5~~---|
Е|-------------------------------|

Е|------------------------------------------------------|
B|------------------------------------------------------|
G|-------7-----------------5-----------------------3----|
D|-------7--7--7--7--7--7--5--5--5--5--5--5--5--5--3-3--|
А|-12^0--5--5--5--5--5--5--3--3--3--3--3--3--3--3--1-1--|
Е|------------------------------------------------------|
     Dm           C                B
     Я не верил, что я мертв, я слышал брань и плачь.

Е|------------------------------------------------------|
B|------------------------------------------------------|
G|--------------------2-----------------------7---------|
D|--3--3--3--3--3--3--2--2--2--2--2--2--2--2--7---------|
А|--1--1--1--1--1--1--0--0--0--0--0--0--0--0--5---------|
Е|------------------------------------------------------|
               Am               Dm
Видел как над телом там внизу шаманил старый врач.

Е|---------------------------------------------------|
B|---------------------------------------------------|
G|----------------------------5-----------------3----|
D|----------7--7--7--7--7--7--5--5--5--5--5--5--3--3-|
А|----------5--5--5--5--5--5--3--3--3--3--3--3--1--1-|
Е|---------------------------------------------------|
       Dm           C           B
      Я плыл в черной пустоте, я обретал покой.

Е|------------------------------------------------------|
B|------------------------------------------------------|
G|--------------------2--------------------------7------|
D|--3--3--3--3--3--3--2--2--2--2--2--2--2--2--2--7------|
А|--1--1--1--1--1--1--0--0--0--0--0--0--0--0--0--5------|
Е|------------------------------------------------------|
              Am                 Dm
Свет в конце тонеля, как магнит тянул к себе дух мой...

Е|---------------------------------------------------|
B|---------------------------------------------------|
G|---------------------------------------------7~~~--|
D|---9--7--12--10------------------------------------|
А|---7--5--10--8---7-8-7Н0-5~~~----------------------|
Е|---------------------------------------------------|
                              B
                   Не хочешь - не верь мне!

Е|-------------------------------|
B|-------------------------------|
G|-------------------------------|
D|---9--7--12--10----------------|
А|---7--5--10--8---7-8-7Н0-5~~~--|
Е|-------------------------------|

Свет был ярче тысяч солнц,   |
Я понял - это бог!           |
Не бездушный идол,           |
А живой сверкающий поток.    | играется также,
Свет заставил вспомнить всех | как в первом куплете
С кем дрался и грешил.       |
Он заставил вспомнить,       |
Каждый шаг бунтующей души... |

Е|---------------------------------------------------|
B|---------------------------------------------------|
G|---------------------------------------------7~~~--|
D|---9--7--12--10------------------------------------|

А|---7--5--10--8---7-8-7Н0-5~~~----------------------|
Е|---------------------------------------------------|
                   Не хочешь - не верь мне!

Е|--------------------------------------------------|
B|--------------------------------------------------|
G|-----------------------------------------------9--|
D|-9--7--12--10----------------------------------9--|
А|-7--5--10--8---7-8-7Н0-5--7-8-7Н0-5--7-8-7Н0---7--|
Е|--------------------------------------------------|

D|--9--9--9--9--9--9--5-----|
А|--7--7--7--7--7--7--3-----|
Е|--------------------------|
  Em           C
  Я не хочу той пустоты,

D|--5--5--5--5--5--5--------|
А|--3--3--3--3--3--3--7-----|
Е|--------------------5-----|
              Am
  Я не хочу той чистоты,

D|--------------------------|
А|--7--7--7--7--7--7--5-----|
Е|--5--5--5--5--5--5--3-----|
              G
  Я не хочу той высоты,

G|-----------------------9--|
D|-----------4--4--4--4--9--|
А|--5--5--5--2--2--2--2--7--|
Е|--3--3--3-----------------|
        H7       Em
  Я не прошел всего пути!

D|--9--9--9--9--9--9--5-----|
А|--7--7--7--7--7--7--3-----|
Е|--------------------------|
              C
  Я не хочу той высоты,

D|--5--5--5--5--5--5--------|
А|--3--3--3--3--3--3--7-----|
Е|--------------------5-----|
              Am
  Я не хочу той чистоты,

D|--------------------------|
А|--7--7--7--5--5--5--5-----|
Е|--5--5--5--7--7--7--3-----|
              G
  Я не хочу той пустоты,

G|-----------------------------------------------9-----|
D|-----------4--4--4--4--5--5--5--5--7--7--7--7--9-----|
А|--5--5--5--2--2--2--2--3--3--3--3--5--5--5--5--7-----|
Е|--3--3--3--------------------------------------------|
        H7       C       D       Em
                                Нет!

Е|-------------------------------------------------------|
B|-------------------------------------------------------| 2
G|--5--5-3-4~--4-2-3~--3-1-2~----------------------------| раза
D|----------------------------6-4-5~--5-3-4~--4-2-3-2-0--|
А|-------------------------------------------------------|
Е|-------------------------------------------------------|

Я звал друга, но никто
Не слышал голос мой,
Я рванул сквозь стены,
Но никто не бросился за мной.
Там внизу горел асфальт
От сбитых с неба звезд.
Мне хотелось ветра
Чтобы бил наотмашь и насквозь.
Не хочешь - не верь мне!
Качество подбора: нормальное, просмотров за неделю: 2, оригинальная тональность: em.
Поделись аккордами скорей и они к тебе не раз ещё вернутся!
Заметили ошибку? Нажмите сюда
Гитарное караоке
Темп: , звукоизвлечение:,
Это проигрыватель аккордов. Пойте под гитару.. без гитары!
Специальные клавиши:
NUM4 - проиграть предыдущий аккорд, NUM5 - текущий, NUM6 - следующий.
Перейти в полную версию гитарного караоке-плеера

Панель подсказки аккордов

Режим: изучения | исполнения

подсказывать порядок аккордов в тексте

Порядок аккордов по строкам:


Dm | C | Bскрыть

Am | Dmскрыть

Dm | C | Bскрыть

Am | Dmскрыть

Bскрыть

Em | Cскрыть

Amскрыть

Gскрыть

H7 | Emскрыть

Cскрыть

Amскрыть

Gскрыть

H7 | C | D | Emскрыть

Другие песни Арии

Одна из самых старых и успешных советских и российских хэви-метал групп новой британской волны

Любите и хорошо знаете песни этого исполнителя? Сыграйте в игру угадай песню Арии.