версия для незрячих

Земфира - Созрела

Песня Земфиры "Созрела" с аккордами и аппликатурами для гитары и укулеле.

Выбрать тональность (транспонирование): CmC♯mDmD♯mEmFmF♯mGmG♯mAmBmHm
Внимание! После клика на play песня заиграет через 2-3 минуты! Пожалуйста дождитесь!
При клике на аккорд он зазвучит! Настройки звукоизвлечения и темпа - ниже в караоке-плеере.
Проигрыш Riff:
      Hm                A 
 E |-------------------0--0--0--|
 H |-------------------2--2--2--|
 G |--3/4--4⁄3---------2--2--2--| х4
 D |------------5-4-0--2--2--2--|

                Hm              A 
А девочка пьяна    уже который день
              Am                Em 
По уши влюблена  в чужие прелести
Зеленая волна накрыла ее тень
Размыла поцелуй, что помнят челюсти

Припев:
                       G 
   Ко  го  то ждет вокзал,              Кого-то
 G |-----------------------|-5-5--4--------------|
 D |-----------------------|---------7--5--4--5--|
 A |--------------2--------|---------------------|
 E |--0---3---5-------3--3-|---------------------|
                  Hm 
          ждут домой                    Ее
 G |-----------------------|-4-4--2--------------|
 D |-----------------------|---------5--4--3--4--|
 A |-----------------------|---------------------|
 E |-----------------------|---------------------|
                      A 
    никто    не     ждет                Не
 G |-----------------------|-4-4--2--------------|
 D |-----------------------|---------5--4--3--4--|
 A |-----------------------|---------------------|
 E |-----------------------|---------------------|

                      G            F#7 
   хочет     ее     тела
 G |-----------------------|---------------------|
 D |-------------------5---|---------4-----------|
 A |-----------------------|---------------------|
 E |-----------------------|---------------------|

              G                       Hm 
Ей проще не сказать, ей проще быть немой
              A   Hm 
Когда оно придет, а девочка созрела

Проигрыш Riff х 4

Ей радиоэфир приветы передал
Заказанные ей самою же себе
Засмотренный до дыр с картинками журнал
В пустой квартире млеет, саму себя любя

Припев

Соло на синтезаторе:
 E |----15-14-12----12-|----15-14-12----14-|-15-15-14-12---------|
 H |-12----------15----|-12----------15----|--------------13-12--|

Припев

Далее все под Проигрыш Riff

Созрела, созрела, созрела...
Девочка, девочка, девочка etc
Качество подбора: нормальное, просмотров за неделю: 0, оригинальная тональность: hm.
Поделись аккордами скорей и они к тебе не раз ещё вернутся!
Заметили ошибку? Нажмите сюда
Гитарное караоке
Темп: , звукоизвлечение:,
Это проигрыватель аккордов. Пойте под гитару.. без гитары!
Специальные клавиши:
NUM4 - проиграть предыдущий аккорд, NUM5 - текущий, NUM6 - следующий.
Перейти в полную версию гитарного караоке-плеера

Панель подсказки аккордов

Режим: изучения | исполнения

подсказывать порядок аккордов в тексте

Порядок аккордов по строкам:

Hm | Aскрыть
Eскрыть
Hскрыть
Gскрыть
Dскрыть
Hm | Aскрыть
Am | Emскрыть

Gскрыть
Gскрыть
Dскрыть
Aскрыть
Eскрыть
Hmскрыть
Gскрыть
Dскрыть
Aскрыть
Eскрыть
Aскрыть
Gскрыть
Dскрыть
Aскрыть
Eскрыть
G | F#7скрыть
Gскрыть
Dскрыть
Aскрыть
Eскрыть
G | Hmскрыть
A | Hmскрыть

Eскрыть
Hскрыть

Другие песни Земфиры

Любите и хорошо знаете песни этого исполнителя? Сыграйте в игру угадай песню Земфиры.