версия для незрячих

Трубецкой - Паэт

Песня Трубецкого "Паэт" с аккордами и аппликатурами для гитары и укулеле.

Выбрать тональность (транспонирование): CmC♯mDmD♯mEmFmF♯mGmG♯mAmBmHm
Внимание! После клика на play песня заиграет через 2-3 минуты! Пожалуйста дождитесь!
При клике на аккорд он зазвучит! Настройки звукоизвлечения и темпа - ниже в караоке-плеере.
Это же вступление играется и во всех куплетах:
         Em           Em           Hm           D              Em          Em          Hm       D C       
3)-------0-------------0-----------0------------7--------------0------------0-----------0-----------
4)-----4---4---------4---4-------4---4-------7----7---7------4---4--------4---4-------4---4-----7/5-
5)---2-------2-----2-------2---2-------2---5---5----5------2-------2----2-------2---2-------2---5/3-
6)-0-------------0---------------------------------------0------------0-----------------------------

Припев:
   E5  D5  F5   E5      E5 D5 C5  E5  F5  G5 
1)-------------------------------------------|-7-7--7-7----8-8--7-7---7-7--7-7-------------------
2)-------------------------------------------|-8-8--10-10--7-7--8-8---8-8--10-10-----------------
3)-9---7---10---9--9-9---9--7--5---9--10--12-|-9-9--7-7----9-9--9-9---9-9--7-7---5-5--7-7--10-10-
4)-9---7---10---9--9-9---9--7--5---9--10--12-|-9-9--9-9----9-9--9-9---9-9--9-9---5-5--7-7--10-10-
5)-7---5---8----7--7-7---7--5--3---7--8---10-|-7-7--7-7----7-7--7-7---7-7--7-7---3-3--5-5---8-8--

Куплет:
Em                         Hm D
Я, бальны, бесскрыдлаты паэт, 
Em                         Hm D / C
Помню, раз пазабыў сваё гора, 
Гэта цуда зрабіў Ваш прывет. 
Я — бальны, бесскрыдлаты паэт! 

Припев:E5  D5  F5   E5
E5       D5       C5  E5 F5  G5 
 Я — бальны, бесскрыдлаты паэт! 
E5  D5  F5   E5 
E5       D5       C5  E5 F5  G5    E5 E5
 Я — бальны, бесскрыдлаты паэт! 

Куплет:
Мо жыцця майго верш ужо спет, — 
Дык няхай Вам хоць песня гавора, 
Як бальны, бесскрыдлаты паэт 
На гадзіну забыў сваё гора. 

Припев:
Я — бальны, бесскрыдлаты паэт! 
Я — бальны, бесскрыдлаты паэт! 
Я — бальны, бесскрыдлаты паэт! 
На гадзіну забыў сваё гора. 

Проигрыш(2 раза): E5  E5  H5  G5 / A5 / C5

Куплет:
Мая душа, як лук, нацягнутай была, 
І лёгкі, звонкі верш саваўся, як страла.  

Припев:
Я — бальны, бесскрыдлаты паэт! 
Я — бальны, бесскрыдлаты паэт! 
Я — бальны, бесскрыдлаты паэт! 
На гадзіну забыў сваё гора.
Качество подбора: нормальное, просмотров за неделю: 1, оригинальная тональность: em.
Поделись аккордами скорей и они к тебе не раз ещё вернутся!
Заметили ошибку? Нажмите сюда
Гитарное караоке
Темп: , звукоизвлечение:,
Это проигрыватель аккордов. Пойте под гитару.. без гитары!
Специальные клавиши:
NUM4 - проиграть предыдущий аккорд, NUM5 - текущий, NUM6 - следующий.
Перейти в полную версию гитарного караоке-плеера

Панель подсказки аккордов

Режим: изучения | исполнения

подсказывать порядок аккордов в тексте

Порядок аккордов по строкам:

Em | Em | Hm | D | Em | Em | Hm | D | Cскрыть

E5 | D5 | F5 | E5 | E5 | D5 | C5 | E5 | F5 | G5скрыть

Em | Hm | Dскрыть
Em | Hm | D | Cскрыть

E5 | D5 | F5 | E5скрыть
E5 | D5 | C5 | E5 | F5 | G5скрыть
E5 | D5 | F5 | E5скрыть
E5 | D5 | C5 | E5 | F5 | G5 | E5 | E5скрыть

E5 | E5 | H5 | G5 | A5 | C5скрыть

Другие песни Трубецкого

Любите и хорошо знаете песни этого исполнителя? Сыграйте в игру угадай песню Трубецкого.