версия для незрячих

Ступин Константин - Пушистый Хвост Лисицы

Песня Константина Ступина "Пушистый Хвост Лисицы" с аккордами и аппликатурами для гитары и укулеле.

Выбрать тональность (транспонирование): CmC♯mDmD♯mEmFmF♯mGmG♯mAmBmHm
Внимание! После клика на play песня заиграет через 2-3 минуты! Пожалуйста дождитесь!
При клике на аккорд он зазвучит! Настройки звукоизвлечения и темпа - ниже в караоке-плеере.
Вступление:
E|-----------------------------------------------
B|-----------------------------------------------
G|--------2-----0---------------2-----0----------
D|-----2-----2-----0--------2-----2-----0--------
A|--0-----------------3---0--------------------0-
E|--------------------------------------------3--

(Играется на вступлении)
В этом мире
Столько всякого
Легко себя потерять!
Только только
Подсохнет слякоть
Как всё вернётся опять

(Делаем слайд, 5 струна 2 лад-5 струна 3 лад, 
затем квинт C квинт D аккорд Esus4)

Esus4
Я бы раньше
Хрен поверил бы
C D
Да кровь испортила блядь
Их так много
Такие разные
Не успеваешь поспать!
Fm - G - A G
Покой нам только снится, только где эти сны?
Пушистый хвост лисицы не оставил следы
Дорог так много, а моя одна
Тяжёлый рок-н-ролл весёлый - жизнь моя!
A G A
Осенний ветер
Швыряет листья
Fm G
И на асфальт их гнить!
В этих листьях
Я вижу лица
У них у всех гепатит!
Покой нам только снится, только где эти сны?
Пушистый хвост лисицы не оставил следы
Дорог так много, а моя одна
Тяжёлый рок-н-ролл весёлый - жизнь моя!
Качество подбора: нормальное, просмотров за неделю: 4, оригинальная тональность: fm.
Поделись аккордами скорей и они к тебе не раз ещё вернутся!
Заметили ошибку? Нажмите сюда
Гитарное караоке
Темп: , звукоизвлечение:,
Это проигрыватель аккордов. Пойте под гитару.. без гитары!
Специальные клавиши:
NUM4 - проиграть предыдущий аккорд, NUM5 - текущий, NUM6 - следующий.
Перейти в полную версию гитарного караоке-плеера

Панель подсказки аккордов

Режим: изучения | исполнения

подсказывать порядок аккордов в тексте

Порядок аккордов по строкам:

E|-----------------------------------------------скрыть
B|-----------------------------------------------скрыть
G|--------2-----0---------------2-----0----------скрыть
D|-----2-----2-----0--------2-----2-----0--------скрыть
A|--0-----------------3---0--------------------0-скрыть
E|--------------------------------------------3--скрыть

C | D | Esus4скрыть
Esus4скрыть

C | Dскрыть

Fm | G | A | Gскрыть

A | G | Aскрыть

Fm | Gскрыть

Другие песни Константина Ступина

Любите и хорошо знаете песни этого исполнителя? Сыграйте в игру угадай песню Константина Ступина.