АккордусПесенник с аккордамиОрлов ИльяВ прошлом и будущем
версия для незрячих

Орлов Илья - В прошлом и будущем

Песня Ильи Орлова "В прошлом и будущем" с аккордами и аппликатурами для гитары и укулеле.

Выбрать тональность (транспонирование): CmC♯mDmD♯mEmFmF♯mGmG♯mAmBmHm
Внимание! После клика на play песня заиграет через 2-3 минуты! Пожалуйста дождитесь!
При клике на аккорд он зазвучит! Настройки звукоизвлечения и темпа - ниже в караоке-плеере.
Вступление
Е||-----------------------|-----------------12----|
B||--8---7---5------3--1--|--0-------0------12----|
G||--0---0---0------0--0--|--0---2---0------12----|
D||--9---7---5------4--2--|--0---0---2------------|
А||--7---5---3------2--0--|--2--------------------|
Е||-----------------------|--3---2---0------------|

Е||-----------------------|---------------------|-----------------------|
B||--8---7---5------3--1--|--0------3-----------|--8---7---5------3--1--|
G||--0---0---0------0--0--|--0------2-----------|--0---0---0------0--0--|
D||--9---7---5------4--2--|--0------0-----------|--9---7---5------4--2--|
А||--7---5---3------2--0--|--2------------------|--7---5---3------2--0--|
Е||-----------------------|--3------2-----------|-----------------------|

Е||-----------------12----|-----------------------|-----------------12----|
B||--0-------0------12----|--8---7---5------3--1--|--0-------0------12----|
G||--0---2---0------12----|--0---0---0------0--0--|--0---2---0------12----|
D||--0---0---2------------|--9---7---5------4--2--|--0---0---2------------|
А||--2--------------------|--7---5---3------2--0--|--2--------------------|
Е||--3---2---0------------|-----------------------|--3---2---0------------|

Куплет
Е||-----------------------|-----------------12----|
B||--8---7---5------3--1--|--0-------0------12----|
G||--0---0---0------0--0--|--0---2---0------12----|
D||--9---7---5------4--2--|--0---0---2------------|
А||--7---5---3------2--0--|--2--------------------|
Е||-----------------------|--3---2---0------------|

Е||-----------------------|---------------------||
B||--8---7---5------3--1--|--0------3-----------||
G||--0---0---0------0--0--|--0------2-----------||
D||--9---7---5------4--2--|--0------0-----------||
А||--7---5---3------2--0--|--2------------------||
Е||-----------------------|--3------2-----------||

Я живу в ожидании,
нужных слов, настроения

Е||-----------------------|----------------------|
B||--8---7---5------3--1--|--0-------0-----------|
G||--0---0---0------0--0--|--0---2---0-----------|
D||--9---7---5------4--2--|--0---0---2-----------|
А||--7---5---3------2--0--|--2-------------------|
Е||-----------------------|--3---2---0-----------|

  C      G           D      H7      
Е||--0------3--------|--2------2--------||
B||--1------0--------|--3------4--------||
G||--0------0--------|--2------2--------||
D||--2------0--------|--0------4--------||
А||--3------2--------|---------2--------||
Е||---------3--------|------------------||

Выражая желание 
Терпением       

Оставляя ненужное,
Пропуская не главное,
Верю, в прошлом и будущем
Всё равное      

Припев
               Am C D
               Вещи покупаем от скуки
               G Em
               И завтра не глядя отправляем их в хлам
               Am C D
               Всё что мы узнаем сегодня
               Em 
               Останется нам

Старые фотографии,
Чёрно-белые повести,
Краткая биография
На совести      

Начиная вступление,
Погружаюсь в сомнения,
Пролетая во времени мгновения

               Вещи покупаем от скуки
               И завтра не глядя отправляем их в хлам
               Всё, что мы умеем сегодня,
               Останется нам.
Качество подбора: нормальное, просмотров за неделю: 1, оригинальная тональность: em.
Поделись аккордами скорей и они к тебе не раз ещё вернутся!
Заметили ошибку? Нажмите сюда
Гитарное караоке
Темп: , звукоизвлечение:,
Это проигрыватель аккордов. Пойте под гитару.. без гитары!
Специальные клавиши:
NUM4 - проиграть предыдущий аккорд, NUM5 - текущий, NUM6 - следующий.
Перейти в полную версию гитарного караоке-плеера

Панель подсказки аккордов

Режим: изучения | исполнения

подсказывать порядок аккордов в тексте

Порядок аккордов по строкам:


C | G | D | H7скрыть

Am | C | Dскрыть
G | Emскрыть
Am | C | Dскрыть
Emскрыть

Другие песни Ильи Орлова

Любите и хорошо знаете песни этого исполнителя? Сыграйте в игру угадай песню Ильи Орлова.