АккордусПесенник с аккордамиОбе двеКапитан Сорви-Голова
версия для незрячих

Обе две - Капитан Сорви-Голова

Песня Обоих двух "Капитан Сорви-Голова" с аккордами и аппликатурами для гитары и укулеле.

Выбрать тональность (транспонирование): CmC♯mDmD♯mEmFmF♯mGmG♯mAmBmHm
Внимание! После клика на play песня заиграет через 2-3 минуты! Пожалуйста дождитесь!
При клике на аккорд он зазвучит! Настройки звукоизвлечения и темпа - ниже в караоке-плеере.
КУПЛЕТ:
2)---------------------5-----------------------------------------------5--------------------------------
3)---------5----------7----------------9-------------4----------------7------------5--------------8---
4)---------7----------5----------------7-------------2----------------5------------7--------------9---
5)---0-----------7-------------8---------------3---------------7-------------0-------------0-----------
6)---5------

ПРИПЕВ:
2)----------------------------5-----------------------------------
3)-----------4-------------7-------------9-----10-9------9-----
4)---------2----------------------------7---------------------7--
5)-----3-----------3----7-------7---8-------8--------8----------

2)----------------------------5-----------------------------
3)-----------4-------------7---------------5-------5-4----
4)---------2----------------------------7-------------------
5)-----3-----------3----7-------7---0---------0-----------

Были записаны в книгах мелом мы
Нас кидает с волны на волну
Ты шепчешь "виват"
Мне наплевать

Кто здесь помнит твои все победы белыми?
Как вязать в груди морские узлы?
Я иду на е2 —
Мне не наливать!
Я твой

Я твой
Я твой
Я твой Сорви-голова
Я твой Сорви-голова
Я твой Сорви-голова капитан

Мы танцуем всю ночь и полдня
Но ты сведи нас в одно! Дай огня!
Мы находим слова
Даже в клетке у льва
Я твой

Мы танцуем всю ночь и полдня
Мы танцуем всю ночь и полдня
Мы танцуем всю ночь
Мы танцуем всю ночь
Мы танцуем всю ночь и полдня
Мы танцуем всю ночь и полдня
Мы танцуем всю ночь и полдня
Я твой 

Я твой
Я твой
Я твой Сорви-голова
Я твой Сорви-голова
Я твой Сорви-голова капитан
Качество подбора: нормальное, просмотров за неделю: 0, оригинальная тональность: am.
Поделись аккордами скорей и они к тебе не раз ещё вернутся!
Заметили ошибку? Нажмите сюда
Гитарное караоке
Темп: , звукоизвлечение:,
Это проигрыватель аккордов. Пойте под гитару.. без гитары!
Специальные клавиши:
NUM4 - проиграть предыдущий аккорд, NUM5 - текущий, NUM6 - следующий.
Перейти в полную версию гитарного караоке-плеера

Панель подсказки аккордов

Режим: изучения | исполнения

подсказывать порядок аккордов в тексте

Порядок аккордов по строкам:


Другие песни Обоих двух

Любите и хорошо знаете песни этого исполнителя? Сыграйте в игру угадай песню Обоих двух.