версия для незрячих

Нервы - Этому городу

Песня Нервы "Этому городу" с аккордами и аппликатурами для гитары и укулеле.

Выбрать тональность (транспонирование): CC♯DD♯EFF♯GG♯ABH
Внимание! После клика на play песня заиграет через 2-3 минуты! Пожалуйста дождитесь!
При клике на аккорд он зазвучит! Настройки звукоизвлечения и темпа - ниже в караоке-плеере.
Вступление, 1-ый и 2-ой куплеты:
Е---------------------------------------------------------------------------------------------------------------------
А------3----------------------------------0-----------------------------------------5---------------------------------
D---------5-------5---------5------5---------5---------5----------5-------5-----------5----------5---------5--------5-
G-------------5-----------------5-------------------5-------------------5----------------------5-------------------5--
B-----------------------0----------------------------------------0------------------------------------------0---------
Е---------------------------------------------------------------------------------------------------------------------

А что это за песня
что греет твое сердце
а кто на моем месте
улыбкой на твоем лице
к кому ты убежала
и с кем зима теплее
а ты мне обещала
что я пожалею

C5          E5
никогда, никогда
D5      
я не хотел тебя отдавать
H5
этому городу
C5          E5
никогда, никогда
D5                    H5
я не хотел тебя отдавать

C5          E5
никогда, никогда
D5                                   
я не хотел тебя отдавать
H5
этому городу
C5          E5
никогда, никогда
D5                   H5
я не хотел тебя отдавать

Е---------------------------------------------------------------------------------------------------------------------
А------3----------------------------------0-----------------------------------------5---------------------------------
D---------5-------5---------5------5---------5---------5----------5-------5-----------5----------5---------5--------5-
G-------------5-----------------5-------------------5-------------------5----------------------5-------------------5--
B-----------------------0----------------------------------------0------------------------------------------0---------
Е---------------------------------------------------------------------------------------------------------------------

ты больше не захочешь
все начинать с начала
а с кем ты пересмотришь
наши сериалы
плачут мои вкладки
я фильмы не качаю
у меня осадки
я по тебе скучаю

C5          E5
никогда, никогда
D5      
я не хотел тебя отдавать
H5
этому городу
C5          E5
никогда, никогда
D5                    H5
я не хотел тебя отдавать

C5          E5
никогда, никогда
D5                                   
я не хотел тебя отдавать
H5
этому городу
C5          E5
никогда, никогда
D5                 H5
я не хотел тебя отдавать

C5 E5 C5 E5 C5 E5

C5          E5
никогда, никогда
D5                                   
я не хотел тебя отдавать
H5
этому городу
C5          E5
никогда, никогда
D5                    E5
я не хотел тебя отдавать

E5
никогда, никогда
E5
никогда, никогда
E5
никогда, никогда
E5
никогда, никогда
E5
никогда, никогда
E5
никогда, никогда

Е---------------------------------------------------------------------------------------------------------------------
А------3----------------------------------0-----------------------------------------5---------------------------------
D---------5-------5---------5------5---------5---------5----------5-------5-----------5----------5---------5--------5-
G-------------5-----------------5-------------------5-------------------5----------------------5-------------------5--
B-----------------------0----------------------------------------0------------------------------------------0---------
Е---------------------------------------------------------------------------------------------------------------------

а что это за песня,
C5
что греет твое сердце...
Качество подбора: нормальное, просмотров за неделю: 2, оригинальная тональность: e.
Поделись аккордами скорей и они к тебе не раз ещё вернутся!
Заметили ошибку? Нажмите сюда
Гитарное караоке
Темп: , звукоизвлечение:,
Это проигрыватель аккордов. Пойте под гитару.. без гитары!
Специальные клавиши:
NUM4 - проиграть предыдущий аккорд, NUM5 - текущий, NUM6 - следующий.
Перейти в полную версию гитарного караоке-плеера

Панель подсказки аккордов

Режим: изучения | исполнения

подсказывать порядок аккордов в тексте

Порядок аккордов по строкам:


C5 | E5скрыть
D5скрыть
H5скрыть
C5 | E5скрыть
D5 | H5скрыть

C5 | E5скрыть
D5скрыть
H5скрыть
C5 | E5скрыть
D5 | H5скрыть

C5 | E5скрыть
D5скрыть
H5скрыть
C5 | E5скрыть
D5 | H5скрыть

C5 | E5скрыть
D5скрыть
H5скрыть
C5 | E5скрыть
D5 | H5скрыть

C5 | E5 | C5 | E5 | C5 | E5скрыть
C5 | E5скрыть
D5скрыть
H5скрыть
C5 | E5скрыть
D5 | E5скрыть

E5скрыть
E5скрыть
E5скрыть
E5скрыть
E5скрыть
E5скрыть

C5скрыть

Другие песни Нервы

Любите и хорошо знаете песни этого исполнителя? Сыграйте в игру угадай песню Нервы.