версия для незрячих

Мельница - Изольда

Песня Мельницы "Изольда" с аккордами и аппликатурами для гитары и укулеле.

Выбрать тональность (транспонирование): CmC♯mDmD♯mEmFmF♯mGmG♯mAmBmHm
Внимание! После клика на play песня заиграет через 2-3 минуты! Пожалуйста дождитесь!
При клике на аккорд он зазвучит! Настройки звукоизвлечения и темпа - ниже в караоке-плеере.
Играется с каподастром на 3 ладу. Ниже — подробней.

Вступление: 
         Cm         Gm            B                  F
Е|--------0------------------------------------------0-----0----|
B|-----------3р1-0----------3-----3------1р0-------3----3-------|
G|------2-------------0-------0--------0-----2---2--------------|
D|----2-----------------2-------2----0---------0----------------|
А|--0---------------------2-------------------------------------|
Е|-----------------0--------------3-----------------------------|

                                               тут очень быстрый форшлаг
                                                             ↓
Е|------------0----------------------------------------3--2h3р2-0------|
B|--------0h1---3р1-0--------3-----3------1р0--------3------------3----|
G|------2--------------0-------0--------0-----2----2-------------------|
D|----2------------------2-------2----0----------0---------------------|
А|--0----------------------2-------------------------------------------|
Е|------------------0--------------3-----------------------------------|

Е|------------0----------------------------------------0-----0---------|
B|--------0h1---3р1-0--------3-----3------1р0--------3----3------------|
G|------2--------------0-------0--------0-----2----2-------------------|
D|----2------------------2-------2----0----------0---------------------|
А|--0----------------------2-------------------------------------------|
Е|------------------0--------------3-----------------------------------|

     G#               F
Е|----------------------------------|
B|--------0h1р0----3--3--1р0--------|
G|------2-------2--2---------2------|
D|----3------------0----------------|
А|----------------------------------|
Е|--1-------------------------------|

Первый куплет:
Е|--------0----------------------------------------0-----0----|
B|-----------3р1-0----0----3-3--3--3--1р0-3------3----0-------|
G|------2-------------0----0-0--0--0------2----2--------------|
D|----2---------------2----2-2--0--0------0--0----------------|
А|--0-----------------2--2-2-2-----2--------------------------|
Е|-----------------0------------3-----------------------------|
                      *      *     *      ^
        Берегами          дальних           морей,

Е|------------0-------------------------------------3--2h3р2-0----|
B|--------0h1---3р1-0--0----3-3--3--3--1р0-3------3------------3--|
G|------2--------------0----0-0--0--0------2----2-----------------|
D|----2----------------2----2-2--0--0------0--0-------------------|
А|--0------------------2--2-2-2-----2-----------------------------|
Е|------------------0------------3--------------------------------|
                       *      *     *      ^
       Бесконечными дождями в алых     шелках-парусах,

Е|------------0-------------------------------------0-----0-------|
B|--------0h1---3р1-0--0----3-3--3--3--1р0-3------3----0----------|
G|------2--------------0----0-0--0--0------2----2-----------------|
D|----2----------------2----2-2--0--0------0--0-------------------|
А|--0------------------2--2-2-2-----2-----------------------------|
Е|------------------0------------3--------------------------------|
                       *      *     *      ^
       Беспощадными врагами      в жарких боях   за   любовь,

Е|----------------------------------|
B|--------0h1р0----3--3--1р0--------|
G|------2-------2--2---------2------|
D|----3------------0----------------|
А|----------------------------------|
Е|--1-------------------------------|
     За её любовь, мой серебряный.

Проигрыш:      
Е|------------------------------0------------------------------------|
B|--------1-------0---------1h3---1-------1---0-----------1---0------|
G|------2-------0---------0-------------0-------0-------2-------2----|
D|----2-------0-------0h2-------------0-----0-----0---3-----3-----3--|
А|--0-------2-------3------------------------------------------------|
Е|----------------------------------3---------------1----------------|
Чтобы не пропускать мелодию флейты, промычите её 

Е|------------------------------0-------------------------------------------------------------------|
B|--------1---0-------------1h3---1-------1---0-----------1---0------------1---0--------------------|
G|------2-------2---------0-------------0-------0-------2-------2-------2--------2------------------|
D|----0-----0-----0---0h2-------------0-----0-----0---3-----3-----3---0------0-----0-----------2----|
А|------------------3----------------------------------------------------------------2--------------|
Е|--2-------------------------------3---------------1---------------2----------------3--------------|

Второй куплет:
Е|--------0----------------------------------------0-----0----|
B|-----------3р1-0----0----3-3--3--3--1р0-3------3----0-------|
G|------2-------------0----0-0--0--0------2----2--------------|
D|----2---------------2----2-2--0--0------0--0----------------|
А|--0-----------------2--2-2-2-----2--------------------------|
Е|-----------------0------------3-----------------------------|
                      *      *     *      ^
         За    морями         ты сыщешь её,

Е|------------0-------------------------------------3--2h3р2-0----|
B|--------0h1---3р1-0--0----3-3--3--3--1р0-3------3------------3--|
G|------2--------------0----0-0--0--0------2----2-----------------|
D|----2----------------2----2-2--0--0------0--0-------------------|
А|--0------------------2--2-2-2-----2-----------------------------|
Е|------------------0------------3--------------------------------|
                       *      *     *      ^
            За холодными волнами небо      темнеет от стрел

Е|------------0-------------------------------------0-----0-------|
B|--------0h1---3р1-0--0----3-3--3--3--1р0-3------3----0----------|
G|------2--------------0----0-0--0--0------2----2-----------------|
D|----2----------------2----2-2--0--0------0--0-------------------|
А|--0------------------2--2-2-2-----2-----------------------------|
Е|------------------0------------3--------------------------------|
                       *      *     *      ^
       За холодными глазами    отдашь ли ты всё, что имел,

Е|----------------------------------|
B|--------0h1р0----3--3--1р0--------|
G|------2-------2--2---------2------|
D|----3------------0----------------|
А|----------------------------------|
Е|--1-------------------------------|
       За её любовь, мой серебряный?

Проигрыш:                                   те же быстрые форшлаги
                                                        ↓
Е|--------7-----5-------0------0-------0-----0-------------------|
B|------5----8--------1------1-------3----3----------------------|
G|----5-------------2------2-------2-------------------2р0-----0-|
D|-------------------------------0---------------0h2р0-----0h2---|
А|--0------------------------------------------3-----------------|
Е|----------------1----------------------------------------------|

Е|--------7-----5--------9--8--7-------0-----0---0----------------|
B|------5----8--------0--------------3----3------1---3р1h3-----1--|
G|----5-------------0--------------2-------------0---------0h2----|
D|-------------------------------0-----------------2--------------|
А|--0------------------------------------------3------------------|
Е|----------------1-----------------------------------------------|

Е|--------7-----5-------0------0-------0-----0-------------0------|
B|------5----8--------1------1-------3----3------------1h3---1----|
G|----5-------------2------2-------2-----------------0------------|
D|-------------------------------0---------------0h2--------------|
А|--0------------------------------------------3------------------|
Е|----------------1-----------------------------------------------|

Е|----------------------------------------------------------------|
B|--3-----1---0-----------1---0-----------1---0-------------------|
G|------0-------0-------2-------2-------2-------2------------0----|
D|----0-----0-----0---3-----3-----3---0-----0-----0-0-------------|
А|--------------------------------------------------2-------------|
Е|--3---------------1---------------2---------------3-------------|

За цунами лишь флейта поёт
Золотыми голосами в бездонной тьме, в тишине,
Золотыми волосами не скроешься даже на дне
От её любви, мой серебряный.

(В качестве проигрыша играется мелодия куплета и первого проигрыша)

За цунами лишь флейта поёт
Золотыми голосами в бездонной тьме, в тишине,
Золотыми волосами не скроешься даже на дне

Е|----------------------------------|
B|--------0h1р0----3--3--1р0--------|
G|------2-------2--2---------2------|  }х3
D|----3------------0----------------|   
А|----------------------------------|
Е|--1-------------------------------|
     От её любви, мой серебряный.

Е|---0--------|
B|---1--------|
G|---2--------|
D|---2--------|
А|---0--------|
Е|------------|
Качество подбора: нормальное, просмотров за неделю: 2, оригинальная тональность: gm.
Поделись аккордами скорей и они к тебе не раз ещё вернутся!
Заметили ошибку? Нажмите сюда
Гитарное караоке
Темп: , звукоизвлечение:,
Это проигрыватель аккордов. Пойте под гитару.. без гитары!
Специальные клавиши:
NUM4 - проиграть предыдущий аккорд, NUM5 - текущий, NUM6 - следующий.
Перейти в полную версию гитарного караоке-плеера

Панель подсказки аккордов

Режим: изучения | исполнения

подсказывать порядок аккордов в тексте

Порядок аккордов по строкам:


Cm | Gm | B | Fскрыть

G# | Fскрыть

Другие песни Мельницы

Российская фолк-рок-группа из Москвы. Основана 15 октября 1999 года. Исполняет акустическую и электроакустическую музыку

Любите и хорошо знаете песни этого исполнителя? Сыграйте в игру угадай песню Мельницы.