версия для незрячих

Король и шут - Валет и Дама

Песня Короля и Шута "Валет и Дама" с аккордами и аппликатурами для гитары и укулеле.

Выбрать тональность (транспонирование): CC♯DD♯EFF♯GG♯ABH
При клике на аккорд он зазвучит! Настройки звукоизвлечения и темпа - ниже в караоке-плеере.
Intro:
Riff 1 (play twice)   D5 E5 D5 E5
е||--------------------|--------------||
B||--------------------|--------------||
G||--------------------|--------------||
D||-7-5-4-2--7-7-5-4-2-|-7-9-9--7-9-9-||
А||--------------------|-5-7-7--5-7-7-||
Е||--------------------|--------------||
 |--------3х----------|

Riff 2 (play once)
   E5
е||--------------------------||
B||--------------------------||
G||--------------------------||
D||-9-9--9-9-9--9-9-9--9-9-9-||
А||-7-7--7-7-7--7-7-7--7-7-7-||
Е||--------------------------||

1st and 3rd verses w/Rhy.Fig.1 (2 times)
2nd and 4th verses w/Rhy.Fig.2 (2 times)
Chorus w/Rhy.Fig.3 (2 times)
w/Riff 1 (once) and Riff 2 (once) after Chorus
5th verse w/Rhy.Fig.4 (2 times)
w/Rhy.Fig.3 (2 times) after 5th verse

Rhy. Fig.1
  E5
е||---------------------------------|
B||---------------------------------|
G||---------------------------------|
D||-9-9-9-9-9-9-9-9-9-9-9-9-9-9-9-9-|
А||-7-7-7-7-7-7-7-7-7-7-7-7-7-7-7-7-|
Е||---------------------------------|

 C5         D5
Е|--------------------------------||
B|--------------------------------||
G|--------------------------------||
D|-5-5-5-5-5-5-5-5-7-7-7-7-7-7-7-7||
А|-3-3-3-3-3-3-3-3-5-5-5-5-5-5-5-5||
Е|--------------------------------||

  E5
е||--------------------------------|
B||--------------------------------|
G||--------------------------------|
D||-9--9-9--9--9-9--9--9----9--9-9-|
А||-7--7-7--7--7-7--7--7----7--7-7-|
Е||--------------------------------|

 C5          D5
Е|---------------------------------||
B|---------------------------------||
G|---------------------------------||
D|-5-5-5-5-5-5-5-5-7-7-7-7-7-7-7-7-||
А|-3-3-3-3-3-3-3-3-5-5-5-5-5-5-5-5-||
Е|---------------------------------||

 E5
е|---------------------------------|
B|---------------------------------|
G|---------------------------------|
D|-9-9-9-9-9-9-9-9-9-9-9-9-9-9-9-9-|
А|-7-7-7-7-7-7-7-7-7-7-7-7-7-7-7-7-|
Е|---------------------------------|
 C5
Е|---------------------------------|
B|---------------------------------|
G|---------------------------------|
D|-5-5-5-5-5-5-5-5-5-5-5-5-5-5-5-5-|
А|-3-3-3-3-3-3-3-3-3-3-3-3-3-3-3-3-|
Е|---------------------------------|

 E5          A5
е|--------------------------||
B|--------------------------||
G|--------------------------||
D|-9-9-9-9-9-9-9-9--7---7---||
А|-7-7-7-7-7-7-7-7--7---7---||
Е|--------------------------||

 G D
е|--3------------------------------|-2-------------------------|
B|--3------------------------------|-3-------------------------|
G|--4------------------------------|-2-------------------------|
D|--5------------------------------|-0-------------------------|
А|--5------------------------------|-0-------------------------|
Е|--3------------------------------|---------------------------|

Шел с улыбкой здоровяк
По ночному парку,
И у тихого пруда
Повстречал гадалку.

Обратился парень к ней:
"Вот что знать хочу я:
Сколько мне осталось дней?
Как, скажи, умру я?"

Chorus:
И упали карты на снег,
И старуха парню сказала
Сквозь хриплый смех:
"Весь в крови несчастный валет,
А над ним ужасная дама
С ножом в руке!"

И воскликнул здоровяк,
Руки потирая:
"Что ты хочешь мне сказать?
Я не понимаю!"

И блеснул во мраке нож,
И раздался хохот:
"Прямо щас и прямо здесь
Будет тебе плохо!"

Chorus.

На тело ведьма покосилась
w/Fill 1
И в неизвестном направленьи
w/ Rhy. Fill 1
Скрылась!

Fill 1     Rhy. Fill 1
 D5
е|------|   е|-----------------|
B|------|   B|-----------------|
G|------|   G|-----------------|
D|-7-5-2|   D|-7-7-7-7-7-7-7-7-|
А|------|   А|-5-5-5-5-5-5-5-5-|
Е|------|   Е|-----------------|
Качество подбора: нормальное, просмотров за неделю: 0, оригинальная тональность: a.
Поделись аккордами скорей и они к тебе не раз ещё вернутся!
Заметили ошибку? Нажмите сюда
Гитарное караоке
Темп: , звукоизвлечение:,
Это проигрыватель аккордов. Пойте под гитару.. без гитары!
Специальные клавиши:
NUM4 - проиграть предыдущий аккорд, NUM5 - текущий, NUM6 - следующий.
Перейти в полную версию гитарного караоке-плеера

Панель подсказки аккордов

Режим: изучения | исполнения

подсказывать порядок аккордов в тексте

Порядок аккордов по строкам:

D5 | E5 | D5 | E5скрыть

E5скрыть

E5скрыть

C5 | D5скрыть

E5скрыть

C5 | D5скрыть

E5скрыть

C5скрыть

E5 | A5скрыть

G | Dскрыть

D5скрыть

Другие песни Короля и Шута

Российская хоррор-панк-группа получившая большую популярность за своеобразный экзотический стиль творчества

Любите и хорошо знаете песни этого исполнителя? Сыграйте в игру угадай песню Короля и Шута.