версия для незрячих

Флёр - Синие тени

Песня Флёр "Синие тени" с аккордами и аппликатурами для гитары и укулеле.

Выбрать тональность (транспонирование): CmC♯mDmD♯mEmFmF♯mGmG♯mAmBmHm
При клике на аккорд он зазвучит! Настройки звукоизвлечения и темпа - ниже в караоке-плеере.
Вступление:
 
е-||---0---0-------0-|----0----0-----1-|-0----------|---0---0-------0-|
B-||---1---1-------1-|----1----1-----3-|---3--------|---1---1-------1-|
G-||---2---2---2---2-|----2----2-----2-|------2-----|---2---2---2---2-|
D-||-----------------|--3----3----0----|------------|-----------------|
A-||-0---0---0---0---|-----------------|------------|-0---0---0---0---|
E-||-----------------|-----------------|------------|-----------------|


е-||----0----0-----1-|-0----------|---0---0-------0-|
B-||----1----1-----3-|---3--------|---1---1-------1-|
G-||----2----2-----2-|------2-----|---2---2---2---2-|
D-||--3----3----0----|------------|-----------------|
A-||-----------------|------------|-0---0---0---0---|
E-||-----------------|------------|-----------------| и т.д.


Am   G         Dm       E E7
В мире двусмысленном ангел двуликий,
C        G    C
Стал сводным братом моим.
Am     G     Dm   E E7
Солнечный ветер и лунные блики,
C      G      C
Застит от нас едкий дым.

Am     G  Dm    E E7
Где же я это видела, где?
Am   G     F   Dm
Синие тени на синей воде.
G         F
Медленно синие лодки скользят,
G       F     E E7 Am
Синее небо в синих глазах.

Мрачный попутчик садится на весла,
Скован, неловок и нем.
Есть в его облике смутное сходство,
Я не пойму только с кем.

   Где же я это видела где?
   Розовый камень подобный звезде.
   Тонкой рукой, потревожив пески,
   Зверь мне достанет кольцо из реки

Знает ли он, что река эта вышла,
Вырвалась из берегов.
И по изменчивой глади подвижной,
Тени скользят облаков.

   Где же я это видела где?
   Синие тени на синей воде.
   Розовый камень в тяжелом кольце,
   Как мне увидеть, что будет в конце?

Слышишь разноситься гулкое эхо,
Ведьму готовят к венцу.
Но я скажу ей: "примерь-ка доспехи,
Платье тебе не к лицу."

   Где же я это видела где?
   Парусник страшный в своей красоте,
   Медленно синие лодки скользят,
   Синее небо в синих глазах.
Качество подбора: нормальное, просмотров за неделю: 0, оригинальная тональность: am.
Поделись аккордами скорей и они к тебе не раз ещё вернутся!
Заметили ошибку? Нажмите сюда
Гитарное караоке
Темп: , звукоизвлечение:,
Это проигрыватель аккордов. Пойте под гитару.. без гитары!
Специальные клавиши:
NUM4 - проиграть предыдущий аккорд, NUM5 - текущий, NUM6 - следующий.
Перейти в полную версию гитарного караоке-плеера

Панель подсказки аккордов

Режим: изучения | исполнения

подсказывать порядок аккордов в тексте

Порядок аккордов по строкам:


Bскрыть
Gскрыть
Dскрыть
Aскрыть
Eскрыть

Bскрыть
Gскрыть
Dскрыть
Aскрыть
Eскрыть

Am | G | Dm | E | E7скрыть
C | G | Cскрыть
Am | G | Dm | E | E7скрыть
C | G | Cскрыть

Am | G | Dm | E | E7скрыть
Am | G | F | Dmскрыть
G | Fскрыть
G | F | E | E7 | Amскрыть

Другие песни Флёр

Любите и хорошо знаете песни этого исполнителя? Сыграйте в игру угадай песню Флёр.