АккордусПесенник с аккордамиЭпидемияЯ молился на тебя
версия для незрячих

Эпидемия - Я молился на тебя

Песня Эпидемии "Я молился на тебя" с аккордами и аппликатурами для гитары и укулеле.

Выбрать тональность (транспонирование): CmC♯mDmD♯mEmFmF♯mGmG♯mAmBmHm
При клике на аккорд он зазвучит! Настройки звукоизвлечения и темпа - ниже в караоке-плеере.
Hm     A    Em   G
(1)Голос твой затих,
Hm     A      Em   G
Растворяясь в ночи -
D      G        A   A7
Ты исчезла во мгле,
Hm      A       Em   G
Словно пламя свечи.

[E---0-0h2h3р0-0h2р0--------------0h2h3р0-0h2р0-5h7р5-
H-------------------3р2p0--0h2h5---------------------
G-----------------------------------------------------
D-----------------------------------------------------
A-----------------------------------------------------
E-----------------------------------------------------]

(2)В моих снах нету слез -
В них я рядом с тобой.
Просыпаюсь в бреду -
Пусто рядом со мной.

Переход:	
G        A         Hm
В моем сердце пустота,
G    A          F#
А душа моя мертва!

Припев:
      G         A
Я молился на тебя,
       Hm     D     Em
Я смотрел в твои глаза,
          G         A
Словно звезды в небесах
           Hm
Мне сияли они.
        G           A
Дарят свет они не мне -
     Hm      D   Em
Я остался в тишине,
          Em         F#
Только в доме моем смех
                 G
До сих пор твой звенит.
   Em        F#
В доме моем смех
          Hm
До сих пор твой звенит.

(3)Вроде только вчера
Был я рядом с тобой,
Твою руку держал,
Как в мечте золотой.

(4)Ледяная вода
Заменяет мне кровь,
Потому что обман
Уничтожил любовь!

Переход
Припев
соло Juron
Переход
Припев } 2 раза

Табулатура:
Куплет:
[E----------------------------5----------------
H------3-------2-------3-------3--------------
G--------4-------2-------0-------4------------ } 2 раза
D----4-------2--------------------------------
A--2-------0---------2------------------------
E------------------0-------3------------------

E--------2-------2----------------------------
H------3-------3---------2-3-2h3р2---2h3------
G----2-------2---------2-----------4---------- } 1 раз, потом 1-ая
D--0-----------------2------------------------ }           фигура
A------------------0--------------------------
E----------3----------------------------------]

Гармония под проигрыш:
[E--0--------------2--------------0------------
H--0--------------3--------------2------------
G--0--------------2--------------2------------ } 2 раза, потом 1-ая
D--2--------------0--------------2------------ }     и 2-ая фигуры
A--2--------------0--------------0------------
E--0-----------------------------0------------]

Проигрыш:
[E-----------------------------------------------------------------
H------------------------------------------------------/15-14-----
G--9h11/12-11---9h11-9---/7-6----9h11/12-11---9h11-9--------------
D-----------------------------------------------------------------
A-----------------------------------------------------------------
E-----------------------------------------------------------------

E--3-3-х-x-5-5-х-x-7-7-х-x-5-5---5--5--5-------------------
H--3-3-х-x-5-5-х-x-7-7-х-x-5-5---5--5--5-------------------
G--4-4-х-x-6-6-х-x-7-7-х-x-6-6---6--6--6-------------------
D--5-5-х-x-7-7-х-x-9-9-х-x-7-7---7--7--7-------------------
A--5-5-х-x-7-7-х-x-9-9-х-x-7-7---7--7--7-------------------
E--3-3-х-x-5-5-х-x-7-7-х-x-5-5---5--5--5-------------------

E--3-3-х-x-5-5-х-x-2--2--2--2--2---------------------------
H--3-3-х-x-5-5-х-x-2--2--2--2--2---------------------------
G--4-4-х-x-6-6-х-x-3--3--3--3--3---------------------------
D--5-5-х-x-7-7-х-x-4--4--4--4--4---------------------------
A--5-5-х-x-7-7-х-x-4--4--4--4--4---------------------------
E--3-3-х-x-5-5-х-x-2--2--2--2--2---------------------------]

Припев:
[E----------------------------------------------------------
H----------------------------------------------------------
G-----2----------------------------------------------------
D--2--2--4------2-----4------------------------------------
A--2--0--2-4-5--2--4--2-2-2-2-2-2-2-2-2-2-2-2-2-2-2-2------
E--0-------2-3--0--2---------------------------------------

E----------------------------------------------------------
H----------------------------------------------------------
G-----2----------------------------------------------------
D--2--2------4-----------2--4------------------------------
A--2--0--2-2-2------4-5--2--2-4-5--------------------------
E--0------------2-2-2-3--0----2-3-3-3-3-3-3-3-3-3----------

E---------------------------------------------
H---------------------------------------------
G---------------------------------------------
D--2-----4------------------------------------
A--2--4--2------------------------------------
E--0--2---------------------------------------]
Качество подбора: нормальное, просмотров за неделю: 0, оригинальная тональность: hm.
Поделись аккордами скорей и они к тебе не раз ещё вернутся!
Заметили ошибку? Нажмите сюда
Гитарное караоке
Темп: , звукоизвлечение:,
Это проигрыватель аккордов. Пойте под гитару.. без гитары!
Специальные клавиши:
NUM4 - проиграть предыдущий аккорд, NUM5 - текущий, NUM6 - следующий.
Перейти в полную версию гитарного караоке-плеера

Панель подсказки аккордов

Режим: изучения | исполнения

подсказывать порядок аккордов в тексте

Порядок аккордов по строкам:

Hm | A | Em | Gскрыть
Hm | A | Em | Gскрыть
D | G | A | A7скрыть
Hm | A | Em | Gскрыть

Eскрыть
Hскрыть
Gскрыть
Dскрыть
Aскрыть
Eскрыть

G | A | Hmскрыть
G | A | F#скрыть

G | Aскрыть
Hm | D | Emскрыть
G | Aскрыть
Hmскрыть
G | Aскрыть
Hm | D | Emскрыть
Em | F#скрыть
Gскрыть
Em | F#скрыть
Hmскрыть

Eскрыть
Hскрыть
Gскрыть
Dскрыть
Aскрыть
Eскрыть
Eскрыть
Hскрыть
Gскрыть
Dскрыть
Aскрыть
Eскрыть

Eскрыть
Hскрыть
Gскрыть
Dскрыть
Aскрыть
Eскрыть

Eскрыть
Hскрыть
Gскрыть
Dскрыть
Aскрыть
Eскрыть
Eскрыть
Hскрыть
Gскрыть
Dскрыть
Aскрыть
Eскрыть
Eскрыть
Hскрыть
Gскрыть
Dскрыть
Aскрыть
Eскрыть

Eскрыть
Hскрыть
Gскрыть
Dскрыть
Aскрыть
Eскрыть
Eскрыть
Hскрыть
Gскрыть
Dскрыть
Aскрыть
Eскрыть
Eскрыть
Hскрыть
Gскрыть
Dскрыть
Aскрыть
E

Другие песни Эпидемии

Любите и хорошо знаете песни этого исполнителя? Сыграйте в игру угадай песню Эпидемии.