версия для незрячих

Дольский Александр - Ладони на глазах

Песня барда Александра Дольского "Ладони на глазах" с аккордами и аппликатурами для гитары и укулеле.

Выбрать тональность (транспонирование): CmC♯mDmD♯mEmFmF♯mGmG♯mAmBmHm
Внимание! После клика на play песня заиграет через 2-3 минуты! Пожалуйста дождитесь!
При клике на аккорд он зазвучит! Настройки звукоизвлечения и темпа - ниже в караоке-плеере.
е|-7--9--7--6-------|-9-------------------------|-7--9--7--6-------|-9--------14---------------------|
H|-7--------------5-|----------7----------------|-7--------------5-|---------------------------------|
G|-7-----------6----|-------9--7-----7--------7-|-7-----------6----|-------9------14--14----------14-|
D|------------------|----8-----9--9--------9----|------------------|----8---------------------13-----|
А|----------4-------|-9-----------------9-------|----------4-------|-9------------14--14--14---------|
Е|-7----------------|----------7----------------|-7----------------|----------11---------------------|

|-7-----------------|------------------|-5----------------|------------------|-3----------------|-2----------------|
|-7--10-7--10-7--10-|-8----------------|-5--8--5--8--5--8-|-7----------------|-3--5--3--5--3--5-|-2--5--2--5--2--5-|
|-8--8--8--8--8--8--|-------9--------9-|-6--6--6--6--6--6-|-------7--------7-|-4--4--4--4--4--4-|-3--3--3--3--3--3-|
|----9--7--9--7--9--|----9--------9----|----7--5--7--5--7-|----7--------7----|----5--5--5--5--5-|----4--4--4--4--4-|
|-------------------|-7--------7-------|------------------|-5--------5-------|------------------|------------------|
|-7-----------------|------------------|-5----------------|------------------|-3----------------|-2----------------|

|----2-----------2-|------------------||----5--0----------|----5--0----------|----4--0----------|----3--0----------|
|-----3-------3----|-------2--------2-||-----7----7-----7-|-----7----7-----7-|-----7----7-----7-|-----6----6-----6-|
|------4---4-------|----2--------2----||------7------7----|------7------7----|------7------7----|------4------4----|
|-------4----------|------------------||-0----------------|-0----------------|-0----------------|-0----------------|
|-2----------------|-0--------1-------||------------------|------------------|------------------|------------------|
|------------------|------------------||------------------|------------------|------------------|------------------|

|----3--0----------|----------------2-|----------------2-|
|-----6----6-----6-|-------------2----|-2-----------2----|
|------4------4----|----------3-------|----3-----3-------|
|-0----------------|-------4----------|-------4----------|
|------------------|----4-------------|------------------|
|------------------|-2----------------|------------------|

  Hm                                     F#7
Я суетился, глупо жил, спешил в тоске и жажде,
        F#7                               Hm 
Вдруг кто-то руки положил мне на глаза однажды.
     Hm                          H7       Emadd9 
Я чувствую от глаз к вискам прохладное касанье - 
   Emadd9      Hm               C#7 F#7 Hm
Узнать кого-то по рукам немое приказанье. 
       E7
И я задумался на миг, качаясь как в вагоне, -
    G7                                 F#7 
Мужчина, женщина, старик? Неясные ладони... 

    Hm                                       F#7
Кто так уверен, что со мной был близок или дружен, 
     F#7                                        Hm
что до сих пор в судьбе земной он мне зачем-то нужен?
    Hm                          H7         Emadd9 
Ах, это ты, мой старый друг! Твоя повадка, точно!
   Emadd9        Hm                    C#7 F#7 Hm 
Но нет, ладоней полукруг лежит легко, но прочно.
       E7 
Да, вспомнил я, ведь ты ушел, и мы давно расстались.
     G7                                 F#7 
В ладонях теплых хорошо, и мир вокруг растаял... 

   Hm                                F#7
Теперь мне ясно - это ты! Откуда ты явилась?
     F#7                               Hm 
Освободи от темноты, откройся, сделай милость! 
   Hm                    H7          Emadd9
Моя вина, твоя вина - забудь, и я забуду! 
  Emadd9         Hm                    C#7 F#7 Hm
И отгадал я! Тишина... нет, не свершиться чуду. 
         E7                                  
Ах, это мама! Мама, ты? В ответ опять молчанье.
   G7                              F#7 
Заговорился. Темноты не видно окончанья.

    Hm                                      F#7 
С ума сошел я, фантазер, ведь ты скрестила руки
     F#7                                Hm 
В краю лесов, в краю озер на вечныя разлуки. 
   Hm                         H7       Emadd9
Невольно сам себе я вру с закрытыми глазами. 
Emadd9          Hm                   C#7 F#7 Hm
Нет, отгадать я не могу... Скажите имя сами.
     E7 
Ах, нет, не убирайте рук! Я памяти внимаю
    G7                                     F#7 
И слышу чей-то сердца стук, но чей? Не понимаю... 

     Hm                                     F#7
Кто так уверен, что со мной был близок или дружен,
     F#7                                    Hsus2 Hm Hsus2 Hm 
что до сих пор в судьбе земной он мне зачем-то нужен?..
Качество подбора: нормальное, просмотров за неделю: 30, оригинальная тональность: hm.
Поделись аккордами скорей и они к тебе не раз ещё вернутся!
Заметили ошибку? Нажмите сюда
Гитарное караоке
Темп: , звукоизвлечение:,
Это проигрыватель аккордов. Пойте под гитару.. без гитары!
Специальные клавиши:
NUM4 - проиграть предыдущий аккорд, NUM5 - текущий, NUM6 - следующий.
Перейти в полную версию гитарного караоке-плеера

Панель подсказки аккордов

Режим: изучения | исполнения

подсказывать порядок аккордов в тексте

Порядок аккордов по строкам:


Hm | F#7скрыть
F#7 | Hmскрыть
Hm | H7 | Emadd9скрыть
Emadd9 | Hm | C#7 | F#7 | Hmскрыть
E7скрыть
G7 | F#7скрыть

Hm | F#7скрыть
F#7 | Hmскрыть
Hm | H7 | Emadd9скрыть
Emadd9 | Hm | C#7 | F#7 | Hmскрыть
E7скрыть
G7 | F#7скрыть

Hm | F#7скрыть
F#7 | Hmскрыть
Hm | H7 | Emadd9скрыть
Emadd9 | Hm | C#7 | F#7 | Hmскрыть
E7скрыть
G7 | F#7скрыть

Hm | F#7скрыть
F#7 | Hmскрыть
Hm | H7 | Emadd9скрыть
Emadd9 | Hm | C#7 | F#7 | Hmскрыть
E7скрыть
G7 | F#7скрыть

Hm | F#7скрыть
F#7 | Hsus2 | Hm | Hsus2 | Hmскрыть

Другие песни Александра Дольского

Любите и хорошо знаете песни этого исполнителя? Сыграйте в игру угадай песню Александра Дольского.