версия для незрячих

Чайф - У взморья

Песня Чайфа "У взморья" с аккордами и аппликатурами для гитары и укулеле.

Выбрать тональность (транспонирование): CmC♯mDmD♯mEmFmF♯mGmG♯mAmBmHm
Внимание! После клика на play песня заиграет через 2-3 минуты! Пожалуйста дождитесь!
При клике на аккорд он зазвучит! Настройки звукоизвлечения и темпа - ниже в караоке-плеере.
Intro: 
2nd Guitar 
E |--3---3---3---3---3---3---3---3---2---2---2--2---3---3---5---5 
H |5---5---5---5---5---5---5---5---4---4---4---4--5---5---7---7-- 
G |-------------------------------------------------------------- 
D |-------------------------------------------------------------- 
A |-------------------------------------------------------------- 
E |--------------------------------------------------------------     

Em       H7   Em          H7        Em          H7 
E |--------|-^7-|--------|-^7-----^7|-12-12-12-12|-^7-----------| 
H |-^12----|----|-^12----|----^12---|------------|----12-12-10-8| 
G |-----^12|----|-----^12|----------|------------|--------------| 
D |--------|----|--------|----------|------------|--------------| 
A |--------|----|--------|----------|------------|--------------| 
E |--------|----|--------|----------|------------|--------------|  

Em           H7 
------------|-------- 
-12---------|--------         
--9-11h12р11|-9-7----         
                              
------------|-----9--        
------------|-------- 
------------|--------  

Bass for intro:    
Em   H7          Em    H7     Em   H7         Em   H7 
G |----|-----------|-----|------|----|----------|----|----------| 
D |----|-----------|-----|------|----|----------|----|----------| 
A |----|-2-2---0h2-|-----|-2-0--|----|-2-2---0h2|----|-2---2----| 
E |-0-3|-----3-----|-0-3-|-----3|-0-3|-----3----|-0-3|----------|  

Coda: 
2nd Guitar    
Em        H7 
E -3-3-2-3|-5-5-3-2-3-----| 
H -5-5-4-5|-7-7-5-4-5-----| 
G --------|---------------| 
D --------|---------------| 
A --------|---------------| 
E --------|---------------|  
Качество подбора: нормальное, просмотров за неделю: 3, оригинальная тональность: em.
Поделись аккордами скорей и они к тебе не раз ещё вернутся!
Заметили ошибку? Нажмите сюда
Гитарное караоке
Темп: , звукоизвлечение:,
Это проигрыватель аккордов. Пойте под гитару.. без гитары!
Специальные клавиши:
NUM4 - проиграть предыдущий аккорд, NUM5 - текущий, NUM6 - следующий.
Перейти в полную версию гитарного караоке-плеера

Панель подсказки аккордов

Режим: изучения | исполнения

подсказывать порядок аккордов в тексте

Порядок аккордов по строкам:


Eскрыть
Hскрыть
Gскрыть
Dскрыть
Aскрыть
Eскрыть
Em | H7 | Em | H7 | Em | H7скрыть
Eскрыть
Hскрыть
Gскрыть
Dскрыть
Aскрыть
Eскрыть
Em | H7скрыть

Em | H7 | Em | H7 | Em | H7 | Em | H7скрыть
Gскрыть
Dскрыть
Aскрыть
Eскрыть

Em | H7скрыть
Eскрыть
Hскрыть
Gскрыть
Dскрыть
Aскрыть
E

Другие песни Чайфа

Любите и хорошо знаете песни этого исполнителя? Сыграйте в игру угадай песню Чайфа.