версия для незрячих

Бочарова Лариса - Шансон де Жест

Песня Ларисы Бочаровой "Шансон де Жест" с аккордами и аппликатурами для гитары и укулеле.

Выбрать тональность (транспонирование): CmC♯mDmD♯mEmFmF♯mGmG♯mAmBmHm
Внимание! После клика на play песня заиграет через 2-3 минуты! Пожалуйста дождитесь!
При клике на аккорд он зазвучит! Настройки звукоизвлечения и темпа - ниже в караоке-плеере.
Intro: Em C D Em Am C Hm Em

         Am             C     D  Em
Не на золоте полей, чья трава густа,
          A                  C      D
Не у моря, где на скалах сверкает соль,
         Gm                 F   B
А у вражеского рва, на краю моста
          C                      D
Наконец нашел тебя я, о  мой король.
          G                        F
Из десятка тысяч лиц, через сотни лет
            G                        H  H7
Я б узнал тебя, король, сквозь печати бед -
         Em       Am      D7/F#   G
По сиянию волос, где застыл рассвет,
         C7             H7     Em
Я узнал. И на уста наложил запрет.

          Am                  C    D  Em
Не узнать теперь другим, как ты был убит,
               A              C        D
Как подвел тебя твой голос, порвав струну,
           Gm             Cm    F  B
Что за кубок до конца был тобой испит,
          Eb           D         G
Не проведать никому, что ты был в плену.
        G                         F
Я и так уже предвижу, как верный скальд
           G                 H
Обрисует твою стать и изгиб бровей,
            Em     Am   D7/F#    G
И, настроив на лады деревянный альт,
          C7               H7     Em
Понесет тебя, как взятый в бою трофей. 

         Am             C    D Em
Прикрываясь твоим именем на пути,
          A                  C      D
Будет нищий хлеб выпрашивать на ветру,
         Gm                 F   B
И герольды будут доблесть твою нести,
           D#                    D 
И истреплют, словно вражескую хоругвь.
              G                    B
Менестрели налетят, как мошка на свет,
         G                 H    H7
И такого напоют про любовь и боль,
             Em
Что не выяснить уже - жил ты или нет...
          C7               H7     Em
Не узнать тебя боюсь я, о мой король.

         Am             C    D Em
Я бы вынес на руках тебя, государь,
          A                  C      D
На простор, где волны пенятся об обрыв,

             Gm           C   D(V)   Eb
Но сложить тебе курган - погребальный дар -
          C(III)           H     H7
Невозможно, тайну гибели не раскрыв.

           Am             C        D    Em
Так лежи, о, мой король, средь сожженных трав
            A              C         D
Возле черного моста, где ты принял бой.
               G          H        C(III)
Крылья западных ветров отпоют твой прах,
                  Am           Hm   Em
Чтоб и в смерти ты остался самим собой.
 

Е||--7--7--7--5--3--2--0-----|-----0--------3--2--0-----|
B||--------------------------|--1-----3-----------------|
G||-----------------------0--|-----------2--------------|
D||--------------------------|--------0--------------2--|
А||--------0-----------3-----|--------------------2-----|
Е||--------------------------|--------------------------|

--------------------0-----|-----0--------3--2--0----|
--0--0--1--0--1--3--------|--1-----3----------------|
-----------------------0--|-----------2-------------|
--------------------------|--------0----------------|
--------0-----------3-----|--------------------2----|
--------------------------|-------------------------|

--7--7--7--5--3--2--0-----|-----0--------3--2--0-----|
--------------------------|--1-----3-----------------|
-----------------------0--|-----------2--------------|
--------------------------|--------0--------------2--|
--------0-----------3-----|--------------------2-----|
--------------------------|--------------------------|

--------------------0-----|-----0--------0--2--0----||
--0--0--1--0--1--3--------|--1-----3----------------||
-----------------------0--|-----------2-------------||
--------------------------|--------0----------------||
--------0-----------3-----|--------------------2----||
--------------------------|-------------------------||
Качество подбора: нормальное, просмотров за неделю: 0, оригинальная тональность: em.
Поделись аккордами скорей и они к тебе не раз ещё вернутся!
Заметили ошибку? Нажмите сюда
Гитарное караоке
Темп: , звукоизвлечение:,
Это проигрыватель аккордов. Пойте под гитару.. без гитары!
Специальные клавиши:
NUM4 - проиграть предыдущий аккорд, NUM5 - текущий, NUM6 - следующий.
Перейти в полную версию гитарного караоке-плеера

Панель подсказки аккордов

Режим: изучения | исполнения

подсказывать порядок аккордов в тексте

Порядок аккордов по строкам:

Em | C | D | Em | Am | C | Hm | Emскрыть
Am | C | D | Emскрыть
A | C | Dскрыть
Gm | F | Bскрыть
C | Dскрыть
G | Fскрыть
G | H | H7скрыть
Em | Am | D7/F# | Gскрыть
C7 | H7 | Emскрыть

Am | C | D | Emскрыть
A | C | Dскрыть
Gm | Cm | F | Bскрыть
Eb | D | Gскрыть
G | Fскрыть
G | Hскрыть
Em | Am | D7/F# | Gскрыть
C7 | H7 | Emскрыть

Am | C | D | Emскрыть
A | C | Dскрыть
Gm | F | Bскрыть
D# | Dскрыть
G | Bскрыть
G | H | H7скрыть
Emскрыть
C7 | H7 | Emскрыть

Am | C | D | Emскрыть
A | C | Dскрыть

Gm | C | D(V) | Ebскрыть
C(III) | H | H7скрыть

Am | C | D | Emскрыть
A | C | Dскрыть
G | H | C(III)скрыть
Am | Hm | Emскрыть

Другие песни Ларисы Бочаровой

Любите и хорошо знаете песни этого исполнителя? Сыграйте в игру угадай песню Ларисы Бочаровой.