версия для незрячих

Би-2 - Феллини

Песня Би-2 "Феллини" с аккордами и аппликатурами для гитары и укулеле.

Выбрать тональность (транспонирование): CmC♯mDmD♯mEmFmF♯mGmG♯mAmBmHm
При клике на аккорд он зазвучит! Настройки звукоизвлечения и темпа - ниже в караоке-плеере.
Проигрыш:
1|-------------------------------------------------|
2|-3-------------3--------------3----1----------3--|
3|---------------------------------------3---2-----|
4|-0--------------0--------------0--------------0--|
5|-----3---1---0------3---1---0------3---1---0-----|
6|-------------------------------------------------|
 
   Dm    C    B     A    A
1|------------------------------------|
2|--3-------1----------------------2--|
3|------------------3-------2---------|
4|--0------------------------------2--|
5|----------3-------1-------0---------|
6|------------------------------------|

 А вот второй куплет играется немного по другому:
 Первые две строки:

   Dm    C    B     A    A
1|----1-------0-----------------------|
2|--3-------1---------3------------2--|
3|------------------3-------2---------|
4|--0------------------------------2--|
5|----------3-------1-------0---------|
6|------------------------------------|

Вторые две строки так:

   Dm    C    B     A    A
1|--1-------0----------------------0--|
2|--3-------1-------1-------2------2--|
3|------------------3-------2---------|
4|--0------------------------------2--|
5|----------3-------1-------0---------|
6|------------------------------------|

Припев играется так (каждый аккорд только 1 раз):

   Dm     C     B   A   A
1|--1-1-----0-0-------------------0---|
2|--3-3-----1-1-----3-3-----2-----2---|
3|------------------3-3-----2---------|
4|--0-----------------------------2---|
5|----------3-------1-------0---------|
6|------------------------------------|

Dm      C     B    A   A Dm   C B A A
В одном из неснятых фильмов Федерико Феллини
 Dm       C   B A A Dm   C   B A A
На тоненькой льдине   в бокале мартини
 Dm   C  B A A Dm    C  B A A Dm
Герой на героине,  Героиня на героине
 C     B     A   A  Dm   C B A A
И двойная сплошная пролегла между ними

Между ними секунду назад было жарко
А теперь между ними лежат снега Килиманджаро
Патроны в магазине, глазами на визине
И отравленный воздух глотают так жадно

Припев(х3):
Dm    C H   A   A
Зря ты думаешь о смерти
Dm    C   H          A  A
Я хочу найти письмо в пустом конверте
Dm     C B A A
И прочесть   тебе

потом играется как в первом куплете
Качество подбора: нормальное, просмотров за неделю: 5, оригинальная тональность: dm.
Поделись аккордами скорей и они к тебе не раз ещё вернутся!
Заметили ошибку? Нажмите сюда
Гитарное караоке
Темп: , звукоизвлечение:,
Это проигрыватель аккордов. Пойте под гитару.. без гитары!
Специальные клавиши:
NUM4 - проиграть предыдущий аккорд, NUM5 - текущий, NUM6 - следующий.
Перейти в полную версию гитарного караоке-плеера

Панель подсказки аккордов

Режим: изучения | исполнения

подсказывать порядок аккордов в тексте

Порядок аккордов по строкам:


Dm | C | B | A | Aскрыть

Dm | C | B | A | Aскрыть

Dm | C | B | A | Aскрыть

Dm | C | B | A | Aскрыть

Dm | C | B | A | A | Dm | C | B | A | Aскрыть
Dm | C | B | A | A | Dm | C | B | A | Aскрыть
Dm | C | B | A | A | Dm | C | B | A | A | Dmскрыть
C | B | A | A | Dm | C | B | A | Aскрыть

Dm | C | H | A | Aскрыть
Dm | C | H | A | Aскрыть
Dm | C | B | A | Aскрыть

Другие песни Би-2

Любите и хорошо знаете песни этого исполнителя? Сыграйте в игру угадай песню Би-2.