версия для незрячих

Белая гвардия - Когда ты вернешься

Песня Белой гвардии "Когда ты вернешься" с аккордами и аппликатурами для гитары и укулеле.

Выбрать тональность (транспонирование): CmC♯mDmD♯mEmFmF♯mGmG♯mAmBmHm
Внимание! После клика на play песня заиграет через 2-3 минуты! Пожалуйста дождитесь!
При клике на аккорд он зазвучит! Настройки звукоизвлечения и темпа - ниже в караоке-плеере.
Вступление: Am D7 G C Am H7 Em E7

    q      е  Н                         е  е  е  е  q
Е---10-----8--0--------------|--(0)--------0--2--3--5-----|
B-4:-------------------------|----------3-----------------|
G-4:-------------------------|----------------------------|

    q     е  Н                         е  е  е  е  q
Е---8-----7------------------|-------------------2--3-----|
B------------3---------------|--(3)-----1--3--5-----------|
G----------------------------|----------------------------|

    q     е  Н                         е  е  е  е  е  е
Е---7-----5------------------|-------------------0--2--3--|
B------------1---------------|--(1)-----0--2--4-----------|
G----------------------------|----------------------------|

            е  е  е  е  q      q      е  Н
Е---(3)-----0--2--3--5--7----|--10-----8--12--------------|
B----------------------------|----------------------------|
G----------------------------|----------------------------|

             е  е  е  е  q        q     е  Н
Е---(12)--------0--2--3--5-----|--8-----7--10-------------|
B------------3-----------------|--------------------------|
G------------------------------|--------------------------|

             е  е  е  е  q        q     е  Н
Е---(10)--------------2--3-----|--7-----5--8--------------|
B------------1--3--5-----------|--------------------------|
G------------------------------|--------------------------|

            е  е  е  е  е  е
Е---(8)--------------0--2--0--|--(0)-----------------||
B-----------0--2--4-----------|----------------------||
G-----------------------------|----------------------||

 Em                         Am
Белая гвардия, белый снег, белая музыка революции
 D7                           G
Белая женщина, нервный смех, белого платья слегка коснуться.
 Em                           Am
Белой рукой распахнуть окно, белого света в нем не видя
 D7                           G
Белое выпить до дна вино, в красную улицу в белом выйти...

Припев:
    Em                          Am
Когда ты вернешься, все будет иначе, и нам бы узнать друг друга.
    D7                        G
Когда ты вернешься, а я не жена, и даже не подруга.
    C                             Am
Когда ты вернешься, ко мне так безумно тебя любившей в прошлом.
    H7                             Em               E7
Когда ты вернешься, увидишь, что жребий давно и не нами брошен...

Проигрыш: Am D7 G C Am H7 Em E7

 Em                         Am
Сизые сумерки прошлых лет робко крадутся по переулкам.
 D7                           G
В этом окне еле брезжит свет. Ноты истрепаны, звуки гулки.
 Em                         Am
Тонкие пальцы срывают аккорд. Нам не простят неразумного жара.
 D7                           G
Бьются в решетку стальных ворот пять океанов земного шара.

Основное соло: (повторяет мелодию припева)
(зацените как звучат g#-а-g#) ;-)

Е-------7-----5---3-2h3р2------0---|
B-0--------------------------------|
G----------------------------------|
D----------------------------------|

Е----------------------------------|-/5-------3-----2--0------|
B-5-5-3---5-3---1-0--1--3--1-0--1--|-----------------------3--|
G----------------------------------|--------------------------|
D----------------------------------|--------------------------|

Е----------------------------------|--3-------2-----0---------|
B-3-3-1---3-1-----------1----------|-------------------3---1--|
G---------------4-3--4-----4-3--4--|--------------------------|
D----------------------------------|--------------------------|

Е----------------------------------|--2-------0---------------|
B-1-1-0---1-0-----------0----------|----------------4--1---0--|
G---------------2-1--2-----2-1--2--|--------------------------|
D----------------------------------|--------------------------|

е----------------------------------|--------------------------|
B----------------------------------|--------------------------|
G-2-2-2---4-2-----------2----------|--------------------------|
D---------------5-4--5-----5-4--5--|--------------------------|

 Em                         Am
Красный трамвай простучал в ночи, красный закат догорел в бокале.
 D7                           G
Красные, красные кумачи с красных деревьев на землю упали.
 Em                         Am
Я не ждала тебя в октябре. Виделись сны, я листала сонник.
 D7                           G
Красные лошади на заре бились копытами о подоконник...

Припев:
    Em                          Am
Когда ты вернешься, вернешься в наш город обетованный
    D7                        G
Когда ты вернешься, такой невозможный и такой желанный...

Outro: Am D7 G C Am H7 Em E7     
Качество подбора: нормальное, просмотров за неделю: 3, оригинальная тональность: em.
Поделись аккордами скорей и они к тебе не раз ещё вернутся!
Заметили ошибку? Нажмите сюда
Гитарное караоке
Темп: , звукоизвлечение:,
Это проигрыватель аккордов. Пойте под гитару.. без гитары!
Специальные клавиши:
NUM4 - проиграть предыдущий аккорд, NUM5 - текущий, NUM6 - следующий.
Перейти в полную версию гитарного караоке-плеера

Панель подсказки аккордов

Режим: изучения | исполнения

подсказывать порядок аккордов в тексте

Порядок аккордов по строкам:

Am | D7 | G | C | Am | H7 | Em | E7скрыть

Em | Amскрыть
D7 | Gскрыть
Em | Amскрыть
D7 | Gскрыть

Em | Amскрыть
D7 | Gскрыть
C | Amскрыть
H7 | Em | E7скрыть

Am | D7 | G | C | Am | H7 | Em | E7скрыть
Em | Amскрыть
D7 | Gскрыть
Em | Amскрыть
D7 | Gскрыть

Em | Amскрыть
D7 | Gскрыть
Em | Amскрыть
D7 | Gскрыть

Em | Amскрыть
D7 | Gскрыть

Am | D7 | G | C | Am | H7 | Em | E7

Другие песни Белой гвардии

Любите и хорошо знаете песни этого исполнителя? Сыграйте в игру угадай песню Белой гвардии.