версия для незрячих

Бабкин Сергей - Забери

Песня Сергея Бабкина "Забери" с аккордами и аппликатурами для гитары и укулеле.

Выбрать тональность (транспонирование): CC♯DD♯EFF♯GG♯ABH
Внимание! После клика на play песня заиграет через 2-3 минуты! Пожалуйста дождитесь!
При клике на аккорд он зазвучит! Настройки звукоизвлечения и темпа - ниже в караоке-плеере.
   За-бери    меня       к себе      Я так устал бежать 
е|----0----------0----------0-----------------------
B|--------------------------------------------------
G|---4---4-4----4---4-4----4---4-4------4----4----4-
D|--5-----5----5-----5----5-----5------5----5----5--
А|------------------------------------2----3----5---
Е|-3----------2----------0--------------------------

               За  тобою  вслед        Открой глаза
е|----0----------0----------0-----------------------
B|--------------------------------------------------
G|---4---4-4----4---4-4----4---4-4------4----4----4-
D|--5-----5----5-----5----5-----5------5----5----5--
А|------------------------------------2----3----5---
Е|-3----------2----------0--------------------------

               закрой лицо ру-ка-ми
е|----0----------0----------0-----------------------
B|--------------------------------------------------
G|---4---4-4----4---4-4----4---4-4------4----4----4-
D|--5-----5----5-----5----5-----5------5----5----5--
А|------------------------------------2----3----5---
Е|-3----------2----------0--------------------------

   Свет      я хочу увидеть свет        Между   нами
е|----0----------0----------0-----------------------
B|--------------------------------------------------
G|---4---4-4----4---4-4----4---4-4------4----4----4-
D|--5-----5----5-----5----5-----5------5----5----5--
А|------------------------------------2----3----5---
Е|-3----------2----------0--------------------------

   Пустота   неистова   во  мне       Понять, меня не
е|----0----------0----------0-----------------------
B|--------------------------------------------------
G|---4---4-4----4---4-4----4---4-4------4----4----4-
D|--5-----5----5-----5----5-----5------5----5----5--
А|------------------------------------2----3----5---
Е|-3----------2----------0--------------------------

               переубедить            Прыжок мангуста
е|----0----------0----------0-----------------------
B|--------------------------------------------------
G|---4---4-4----4---4-4----4---4-4------4----4----4-
D|--5-----5----5-----5----5-----5------5----5----5--
А|------------------------------------2----3----5---
Е|-3----------2----------0--------------------------

              пусто,      пусто
е|----0----------0----------0-----------------------
B|--------------------------------------------------
G|---4---4-4----4---4-4----4---4-4------4----4----4-
D|--5-----5----5-----5----5-----5------5----5----5--
А|------------------------------------2----3----5---
Е|-3----------2----------0--------------------------

  Жить,      я боюсь так дальше жить  В ультро-люстрах
е|----0----------0----------0-----------------------
B|--------------------------------------------------
G|---4---4-4----4---4-4----4---4-4------4----4----4-
D|--5-----5----5-----5----5-----5------5----5----5--
А|------------------------------------2----3----5---
Е|-3----------2----------0--------------------------

    Отпусти    с невы-но-си-мою        утратой
е|----0----------0----------0-----------------------
B|--------------------------------------------------
G|---4---4-4----4---4-4----4---4-4------4----4----4-
D|--5-----5----5-----5----5-----5------5----5----5--
А|------------------------------------2----3----5---
Е|-3----------2----------0--------------------------

У трапа,       пойдем        домой
е|----0----------0----------0-----------------------
B|--------------------------------------------------
G|---4---4-4----4---4-4----4---4-4------4----4----4-
D|--5-----5----5-----5----5-----5------5----5----5--
А|------------------------------------2----3----5---
Е|-3----------2----------0--------------------------

   Запусти    себя      в краторы     моей   души - 
е|----0----------0----------0-----------------------
B|--------------------------------------------------
G|---4---4-4----4---4-4----4---4-4------4----4----4-
D|--5-----5----5-----5----5-----5------5----5----5--
А|------------------------------------2----3----5---
Е|-3----------2----------0--------------------------

  Дыши,      дыши,        дыши    Я сам нажму все клапаны
е|----0----------0----------0-----------------------
B|--------------------------------------------------
G|---4---4-4----4---4-4----4---4-4------4----4----4-
D|--5-----5----5-----5----5-----5------5----5----5--
А|------------------------------------2----3----5---
Е|-3----------2----------0--------------------------

Забери меня к себе
Я так устал бежать
За тобою вслед
Открой глаза, закрой лицо руками
Свет, я хочу увидеть свет
Между нами

Проигрыш:
Пустота неистова во мне
Понять, меня не переубедить
Прыжок мангуста пусто, пусто
Жить, я боюсь так дальше жить
В ультро-люстрах

Проигрыш

Отпусти с невыносимою утратой
У трапа, идем домой
Запусти себя в краторы моей души -
Дыши, дыши, дыши
Я сам нажму все клапаны

Проигрыш
Качество подбора: нормальное, просмотров за неделю: 0, оригинальная тональность: .
Поделись аккордами скорей и они к тебе не раз ещё вернутся!
Заметили ошибку? Нажмите сюда
Гитарное караоке
Темп: , звукоизвлечение:,
Это проигрыватель аккордов. Пойте под гитару.. без гитары!
Специальные клавиши:
NUM4 - проиграть предыдущий аккорд, NUM5 - текущий, NUM6 - следующий.
Перейти в полную версию гитарного караоке-плеера

Панель подсказки аккордов

Режим: изучения | исполнения

подсказывать порядок аккордов в тексте

Порядок аккордов по строкам:


Другие песни Сергея Бабкина

Любите и хорошо знаете песни этого исполнителя? Сыграйте в игру угадай песню Сергея Бабкина.