версия для незрячих

Арбенина Диана - Я спросил у ясеня

Песня Дианы Арбениной "Я спросил у ясеня" с аккордами и аппликатурами для гитары и укулеле.

Выбрать тональность (транспонирование): CmC♯mDmD♯mEmFmF♯mGmG♯mAmBmHm
Внимание! После клика на play песня заиграет через 2-3 минуты! Пожалуйста дождитесь!
При клике на аккорд он зазвучит! Настройки звукоизвлечения и темпа - ниже в караоке-плеере.
   Am
Е||---------------------(0)---|---------------------||
B||-----------0----------1----|--------0------------||
G||--------2----------2-------|-----2-------2-------||
D||-----2----------2----------|--2-------------2----||
А||--0------------------------|---------------------||
Е||---------------------------|---------------------||

   A / F#
Е||---------------------(0)---|---------------------||
B||-----------0----------1----|--------0------------||
G||--------2----------2-------|-----2-------2-------||
D||-----2----------2----------|--2-------------2----||
А||---------------------------|---------------------||
Е||--2------------------------|---------------------||

   F
Е||----------------------(1)--|---------------------||
B||-----------0-----------1---|--------0------------||
G||--------2----------2-------|-----2-------2-------||
D||-----3----------3----------|--3-------------3----||
А||---------------------------|---------------------||
Е||--1------------------------|---------------------||

   E
Е||----------------------0----|---------------------||
B||-----------0-------0-------|--------0------------||
G||--------1-------1----------|-----1-------1-------||
D||-----2---------------------|--2-------------2----||
А||---------------------------|---------------------||
Е||--0------------------------|---------------------||

   Am
Е||---------------------(0)---|---------------------||
B||-----------0----------1----|--------0------------||
G||--------2----------2-------|-----2-------2-------||
D||-----2----------2----------|--2-------------2----||
А||--0------------------------|---------------------||
Е||---------------------------|---------------------||

   Dm
Е||-----------1----------0----|--------1------------||
B||--------3----------3-------|-----3-------3-------||
G||-----2----------2----------|--2-------------2----||
D||--0------------------------|---------------------||
А||---------------------------|---------------------||
Е||---------------------------|---------------------||

   G
Е||----------------------3----|---------------------||
B||-----------0-------0-------|--------3------------||
G||--------0-------0----------|-----0-------0-------||
D||-----0---------------------|--0-------------0----||
А||---------------------------|---------------------||
Е||--3------------------------|---------------------||

   C                  E
Е||---------------------------|-----------0---------||
B||-----------1---------------|---------------------||
G||--------0------------------|--------1------------||
D||-----2---------------------|-----2---------------||
А||--3------------------------|---------------------||
Е||---------------------------|--0------------------||

   A#
Е||----------------------1----|--------0------------||
B||-----------3-------3-------|----------------3----||
G||--------3-------3----------|-----3-------3-------||
D||-----3---------------------|--3------------------||
А||--1------------------------|---------------------||
Е||---------------------------|---------------------||

   A
Е||---------------------------|------------------0--------(0)--||
B||-----------2---------------|--3--------(2)----2-----(2)-----||
G||--------2-------------(2)--|--2-----(2)-------2--(2)--------||
D||-----2-----------(2)-------|--2--(2)------------------------||
А||--0------------------------|--------------------------------||
Е||---------------------------|--------------------------------||

   Dm
Е||-----------1----------0----|--------1------------||
B||--------3----------3-------|-----3-------3-------||
G||-----2----------2----------|--2-------------2----||
D||--0------------------------|---------------------||
А||---------------------------|---------------------||
Е||---------------------------|---------------------||

   F6                  E
Е||-----------1---------------|-----------0---------------||
B||--------3-------3-----3----|--------0-------0-----0----||
G||-----2-------------2-------|-----1-------------1-------||
D||---------------------------|---------------------------||
А||--3------------------------|--2------------------------||
Е||---------------------------|---------------------------||

   E
Е||----------------------0----|---------------------||
B||-----------0-------0-------|--------0------------||
G||--------1-------1----------|-----1-------1-------||
D||-----2---------------------|--2-------------2----||
А||---------------------------|---------------------||
Е||--0------------------------|---------------------||

   F
Е||----------------------(1)--|---------------------||
B||-----------0-----------1---|--------0------------||
G||--------2----------2-------|-----2-------2-------||
D||-----3----------3----------|--3-------------3----||
А||--3------------------------|---------------------||
Е||---------------------------|---------------------||

   Hm                  F#sus4
Е||---------------------------|---------------------------||
B||-----------3---------------|-----------2---------------||
G||--------4-------4-----4----|--------4-------4-----4----||
D||-----4-------------4-------|-----4-------------4-------||
А||--2------------------------|---------------------------||
Е||---------------------------|--2------------------------||

   E
Е||----------------------0----|---------------------||
B||-----------0-------0-------|--------0------------||
G||--------1-------1----------|-----1-------1-------||
D||-----2---------------------|--2-------------2----||
А||---------------------------|---------------------||
Е||--0------------------------|---------------------||

   Am
Как больно, милая, как странно,
   A / F#
Сроднясь в земле, сплетясь ветвями,-
   F
Как больно, милая, как странно
   E
Раздваиваться под пилой.
   Am
Не зарастет на сердце рана,
Dm
Прольется чистыми слезами,
G
Не зарастет на сердце рана -
   C           E
Прольется пламенной смолой.

 A#
Пока жива, с тобой я буду -
 A
Душа и кровь нераздвоимы,-
 Dm
Пока жива, с тобой я буду -
 F6                E
Любовь и смерть всегда вдвоем.
E
Ты понесешь с собой повсюду -
F
Ты понесешь с собой, любимый,-
Hm / F#sus4
Ты понесешь с собой повсюду
E
Родную землю, милый дом...

Am       E7
Я спросил у ясеня
A      Dsus2
Где моя любимая
Hm7 E   Am
Ясень не ответил мне
 D / B   E7
Качая головой
A7       Dm
Я спросил у тополя
 G6     C
Где моя любимая
Dm   G   C
Тополь забросал меня
 Dm / Hm7   E7
Осеннею листвой
Я спросил у осени
Где моя любимая
Осень мне ответила
Проливным дождем
У дождя я спрашивал
Где моя любимая
Долго дождик слезы лил
За моим окном
Я спросил у месяца
Где моя любимая
Месяц скрылся в облаке
Не ответил мне
Я спросил у облака
Где моя любимая
Облако растаяло
В небесной синеве...

...Трясясь в прокуренном вагоне,
Он стал бездомным и смиренным,
Трясясь в прокуренном вагоне,
Он полуплакал, полуспал,
Когда состав на скользком склоне
Вдруг изогнулся страшным креном,
Когда состав на скользком склоне
От рельс колеса оторвал.

Нечеловеческая сила,
В одной давильне всех калеча,
Нечеловеческая сила
Земное сбросила с земли.
И никого не защитила
Вдали обещанная встреча,
И никого не защитила
Рука, зовущая вдали...

...Друг ты мой единственный
Где моя любимая
Ты скажи где скрылася
Знаешь где она
Друг ответил преданный
Друг ответил искренний
Была тебе любимая
Была тебе любимая
Была тебе любимая
А стала мне жена...

С любимыми не расставайтесь!
С любимыми не расставайтесь!
С любимыми не расставайтесь!
Всей кровью прорастайте в них,-
И каждый раз навек прощайтесь!
И каждый раз навек прощайтесь!
И каждый раз навек прощайтесь!
Когда уходите на миг!

...Я спросил у ясеня...
Качество подбора: нормальное, просмотров за неделю: 2, оригинальная тональность: am.
Поделись аккордами скорей и они к тебе не раз ещё вернутся!
Заметили ошибку? Нажмите сюда
Гитарное караоке
Темп: , звукоизвлечение:,
Это проигрыватель аккордов. Пойте под гитару.. без гитары!
Специальные клавиши:
NUM4 - проиграть предыдущий аккорд, NUM5 - текущий, NUM6 - следующий.
Перейти в полную версию гитарного караоке-плеера

Панель подсказки аккордов

Режим: изучения | исполнения

подсказывать порядок аккордов в тексте

Порядок аккордов по строкам:

Amскрыть

A | F#скрыть

Fскрыть

Eскрыть

Amскрыть

Dmскрыть

Gскрыть

C | Eскрыть

A#скрыть

Aскрыть

Dmскрыть

F6 | Eскрыть

Eскрыть

Fскрыть

Hm | F#sus4скрыть

Eскрыть

Amскрыть
A | F#скрыть
Fскрыть
Eскрыть
Amскрыть
Dmскрыть
Gскрыть
C | Eскрыть

A#скрыть
Aскрыть
Dmскрыть
F6 | Eскрыть
Eскрыть
Fскрыть
Hm | F#sus4скрыть
Eскрыть

Am | E7скрыть
A | Dsus2скрыть
Hm7 | E | Amскрыть
D | B | E7скрыть
A7 | Dmскрыть
G6 | Cскрыть
Dm | G | Cскрыть
Dm | Hm7 | E7скрыть

Другие песни Дианы Арбениной

Любите и хорошо знаете песни этого исполнителя? Сыграйте в игру угадай песню Дианы Арбениной.