версия для незрячих

Амега - Лететь

Песня Амеги "Лететь" с аккордами и аппликатурами для гитары и укулеле.

Выбрать тональность (транспонирование): CmC♯mDmD♯mEmFmF♯mGmG♯mAmBmHm
При клике на аккорд он зазвучит! Настройки звукоизвлечения и темпа - ниже в караоке-плеере.
Cm   Gm F         D#
Однажды он сказал: "Твой полёт - всего лишь сон"
 Cm     Gm F        D#
И ты летать не стал - стал таким, как он
И по земле ходить научился как ребёнок ты
Но всё не мог забыть той прозрачной высоты
 
Cm
И лететь по белому свету
Gm
Став одним движением ветра
B    F
Лететь, куда-то вдаль
И не думать, как приземлиться
А у птиц свободе учиться
Оставив, всё то, что жаль

Однажды ты привык, и почти не стал мечтать
И только чей-то крик вдруг позвал летать
И поднял ты глаза в высоту, где голоса плывут
Там люди в небесах
И тебя с собой зовут

Полететь по белому свету
Стать одним движением ветра
Лететь куда-то вдаль
И не думать, как приземлиться
А у птиц свободе учиться
Оставив всё то, что жаль

Проигрыш:	
E-------------------------------------------
H-------------------------------------------
G---6s7--5--3----------6s7--5--3--5--3~-----
D--------------5~---------------------------
A-------------------------------------------
E-------------------------------------------

E-------------------------------------------
H--------6----------------------------------
G---6s7-----7--5~------5-5h7р5--------------
D------------------------------5------------
A-------------------------------------------
E-------------------------------------------

E-------------------------------------------
H-------------------------------------------
G---6s7--5s-3----------6s7--5s-3-h5--3~-----
D--------------5~---------------------------
A-------------------------------------------
E-------------------------------------------

E-------------------------------------------
H-----6-8-------6-11-8/8/8/-----6-----------
G---7-----5---7-------------------7-5-------
D-------------------------------------8р5~--
A-------------------------------------------
E-------------------------------------------
Качество подбора: нормальное, просмотров за неделю: 12, оригинальная тональность: gm.
Поделись аккордами скорей и они к тебе не раз ещё вернутся!
Заметили ошибку? Нажмите сюда
Гитарное караоке
Темп: , звукоизвлечение:,
Это проигрыватель аккордов. Пойте под гитару.. без гитары!
Специальные клавиши:
NUM4 - проиграть предыдущий аккорд, NUM5 - текущий, NUM6 - следующий.
Перейти в полную версию гитарного караоке-плеера

Панель подсказки аккордов

Режим: изучения | исполнения

подсказывать порядок аккордов в тексте

Порядок аккордов по строкам:

Cm | Gm | F | D#скрыть
Cm | Gm | F | D#скрыть

Cmскрыть
Gmскрыть
B | Fскрыть

Eскрыть
Hскрыть
Gскрыть
Dскрыть
Aскрыть
Eскрыть
Eскрыть
Hскрыть
Gскрыть
Dскрыть
Aскрыть
Eскрыть
Eскрыть
Hскрыть
Gскрыть
Dскрыть
Aскрыть
Eскрыть
Eскрыть
Hскрыть
Gскрыть
Dскрыть
Aскрыть
E

Другие песни Амеги