версия для незрячих

Алиса - Черная метка

Песня Алисы "Черная метка" с аккордами и аппликатурами для гитары и укулеле.

Выбрать тональность (транспонирование): CC♯DD♯EFF♯GG♯ABH
При клике на аккорд он зазвучит! Настройки звукоизвлечения и темпа - ниже в караоке-плеере.
  A7         D
е|---------------|---2-----3-2---------|
b|-------2-3-2---|-----3---------------|
g|-----0-------0-|-------2-----0-------|
d|---2-----------|-0-------------------|
а|-0-------------|----------------0h2р-|
Е|---------------|---------------------|
 
  A7              D
е|---------------------|---2-----3-2---------------------|
b|-------2-3-2---------|-----3---------------------------|
g|-----0-------0-------|-------2-----0-------------------|
d|---2------------0h2р-|-0-------------0h2р0-------------|
а|-0-------------------|------------------------0h2р0----|
Е|---------------------|---------------------------------|

  A7         D
е|--------------------|---2-----3-2---|
b|-------2-3-2--------|-----3---------|
g|-----0-------0------|-------2-----0-|
d|---2----------------|-0-------------|
а|-0------------------|---------------|
Е|--------------------|---------------|
Чуткий час времени "Ч", звезд парча на моем плече.
В чарах порчи лечу в луче. Моя черная метка,
A5
метка...

/ I A7             D
| е|--------------------|---2-------3--2-----------------------|
| b|--------2-3--2------|-----3--------------------------------|
| g|-----0---------0----|-------2---------0--------------------|
| d|---2----------------|-0------------------------------------|
| а|-0------------------|--------------------------------------|
| Е|--------------------|--------------------------------------|
|
| I
| е|--------------------|--------------------------------------|
| b|--------------------|--------------------------------------|
| g|--------------------|--------------------------------------|
| d|--------------------|-----0h4р0-5-5-4-2--------------------|
| а|-----0h4р0-5-4-0-0--|-------------------5-0-3-0-2-0--------|
| Е|--------------------|--------------------------------------|


/ I A7                    D
| е|-------------------------------|---2-----3-2---------------|
| b|--------2-3--2-----------------|-----3---------------------|
| g|-----0---------0---------------|-------2-----0-------------|
| d|---2---------------------------|-0-------------------------|
| а|-0-----------------------------|---------------------------|
| Е|-------------------------------|---------------------------|
|
| II
| е|-------------------------------|---------------------------|
| b|-------------------------------|-----------------------7---|
| g|-------------------------------|---------------------7-----|
| d|-------------------------------|-----------------7-7-------|
| а|-----0h4р0-5-4-0-4-0-4-4-5-4-0-|-------------5-7-----------|
| Е|-------------------------------|---------------------------|


/ I A7               D
| е|-----------------------|---2-----3-2---|
| b|-------2-3-2-----------|-----3---------|
| g|-----0-------0---------|-------2-----0-|
| d|---2-------------------|-0-------------|
| а|-0---------------------|---------------|
| Е|-----------------------|---------------|
|
| II
| е|-----------------------|----------------------------------|
| b|-----------------------|----------------------------------|
| g|-----------------------|----------------------------------|
| d|-----------------------|-------------0h2р0----------------|
| а|------------/5р0-5р4p0-|-------------------4-3-0----------|
| Е|-----------------------|----------------------------------|

Звездам ночь, свет отцу,   пыль дорог моему лицу.


/ I A7               D
| е|-----------------------|---2-----3-2---|
| b|-------2-3-2-----------|-----3---------|
| g|-----0-------0---------|-------2-----0-|
| d|---2-------------------|-0-------------|
| а|-0---------------------|---------------|
| Е|-----------------------|---------------|
|
| II
| е|-----------------------|---------------|
| b|-----------------------|---------------|
| g|-----------------------|---------------|
| d|-----------------------|---------------|
| а|--------------4/5р4----|---------------|
| Е|-----------------------|---------------|

До конца танцевать к концу. Моя черная метка,
A5
Метка.
   G5        A5 D5
Моя черная метка - ROCK!
A5
Если ты знаешь как жить,
   G5      D5
Рискни ответить мне -
   A5 G5 G#5  A5 G5 G#5 A5 G5 G#5 A5 C5 A5
Кто мог бы стать твоим проводником в небо?

  A5  D5         A5 D5     A5 D5         C5
е|--------------------|-----------|-------------------|-------|
b|--------------------|-----------|-------------------|-------|
g|------7-5---5-------|-----------|-----7-5---5-------|-------|
d|--7-7-7---7---7-5---|-----7-----|-7-7-7---7---7-5---|-------|
а|--7-7-------------7-|-7-7-5---5-|-7-7-------------7-|-3-3-3-|
Е|--5-5---------------|-5-5---5---|-5-5---------------|-------|

 2Х
е|------------------|--------------------|
b|------------------|--------------------|
g|------------------|--------------------|
d|---7---7---7--7/8-|---7---7---7--7/8-|
а|---7---7---7--7/8-|---7---7---7--7/8-|
Е|-5-5-5-5-5-5--5/6-|-5-5-5-5-5-5--5/6-|

е|------------------|--------------------|
b|------------------|--------------------|
g|------------------|--------------------|
d|---7---7---7--7/8-|---7---7---7--7/8-|
а|---7---7---7--7/8-|---7---7---7--7/8-|
Е|-5-5-5-5-5-5--5/6-|-5-5-5-5-5-5--5/6-|
  Я сволочь весны,  я осени шлак

е|------------------------------|
b|------------------------------|
g|------------------------------|
d|---7---7---7---7----8-------7-|
а|---7---7---7---7----8-------7-|
Е|-5-5-5-5-5-5-5-5----6-------5-|
Я тебе не друг и не враг, а так
    C5   H5     B5   A5
Мою кровь сосет придорожный мак.

е|---------------------------------|
b|---------------------------------|
g|---------------------------------|
d|-7-8-7-5-7-8-7-5-7-8-7-5-7-8-7-5-|
а|---------------------------------|
Е|---------------------------------|
Моя черная метка, черная метка.
Качество подбора: нормальное, просмотров за неделю: 0, оригинальная тональность: c.
Поделись аккордами скорей и они к тебе не раз ещё вернутся!
Заметили ошибку? Нажмите сюда
Гитарное караоке
Темп: , звукоизвлечение:,
Это проигрыватель аккордов. Пойте под гитару.. без гитары!
Специальные клавиши:
NUM4 - проиграть предыдущий аккорд, NUM5 - текущий, NUM6 - следующий.
Перейти в полную версию гитарного караоке-плеера

Панель подсказки аккордов

Режим: изучения | исполнения

подсказывать порядок аккордов в тексте

Порядок аккордов по строкам:

A7 | Dскрыть

A7 | Dскрыть

A7 | Dскрыть

A5скрыть

A7 | Dскрыть

A7 | Dскрыть

A7 | Dскрыть

A7 | Dскрыть

A5скрыть
G5 | A5 | D5скрыть
A5скрыть
G5 | D5скрыть
A5 | G5 | G#5 | A5 | G5 | G#5 | A5 | G5 | G#5 | A5 | C5 | A5скрыть

A5 | D5 | A5 | D5 | A5 | D5 | C5скрыть

C5 | H5 | B5 | A5скрыть

Другие песни Алисы

Любите и хорошо знаете песни этого исполнителя? Сыграйте в игру угадай песню Алисы.